  0
SECTION
  2
HEADER
  9
$ACADVER
  1
AC1012
  9
$DWGCODEPAGE
  3
ANSI_1252
  9
$INSBASE
 10
0.0
 20
0.0
 30
0.0
  9
$EXTMIN
 10
-0.012816
 20
-3.226684
 30
-0.001526
  9
$EXTMAX
 10
109.383546
 20
82.742707
 30
0.0
  9
$LIMMIN
 10
0.0
 20
0.0
  9
$LIMMAX
 10
420.0
 20
297.0
  9
$ORTHOMODE
 70
     0
  9
$REGENMODE
 70
     1
  9
$FILLMODE
 70
     1
  9
$QTEXTMODE
 70
     0
  9
$MIRRTEXT
 70
     1
  9
$DRAGMODE
 70
     2
  9
$LTSCALE
 40
1.0
  9
$OSMODE
 70
     1
  9
$ATTMODE
 70
     1
  9
$TEXTSIZE
 40
2.5
  9
$TRACEWID
 40
1.0
  9
$TEXTSTYLE
  7
STANDARD
  9
$CLAYER
  8
0
  9
$CELTYPE
  6
BYLAYER
  9
$CECOLOR
 62
   256
  9
$CELTSCALE
 40
1.0
  9
$DELOBJ
 70
     1
  9
$DISPSILH
 70
     0
  9
$DIMSCALE
 40
1.0
  9
$DIMASZ
 40
2.5
  9
$DIMEXO
 40
0.625
  9
$DIMDLI
 40
3.75
  9
$DIMRND
 40
0.0
  9
$DIMDLE
 40
0.0
  9
$DIMEXE
 40
1.25
  9
$DIMTP
 40
0.0
  9
$DIMTM
 40
0.0
  9
$DIMTXT
 40
2.5
  9
$DIMCEN
 40
2.5
  9
$DIMTSZ
 40
0.0
  9
$DIMTOL
 70
     0
  9
$DIMLIM
 70
     0
  9
$DIMTIH
 70
     0
  9
$DIMTOH
 70
     0
  9
$DIMSE1
 70
     0
  9
$DIMSE2
 70
     0
  9
$DIMTAD
 70
     1
  9
$DIMZIN
 70
     8
  9
$DIMBLK
  1

  9
$DIMASO
 70
     1
  9
$DIMSHO
 70
     1
  9
$DIMPOST
  1

  9
$DIMAPOST
  1

  9
$DIMALT
 70
     0
  9
$DIMALTD
 70
     4
  9
$DIMALTF
 40
0.0394
  9
$DIMLFAC
 40
1.0
  9
$DIMTOFL
 70
     1
  9
$DIMTVP
 40
0.0
  9
$DIMTIX
 70
     0
  9
$DIMSOXD
 70
     0
  9
$DIMSAH
 70
     0
  9
$DIMBLK1
  1

  9
$DIMBLK2
  1

  9
$DIMSTYLE
  2
STANDARD
  9
$DIMCLRD
 70
     0
  9
$DIMCLRE
 70
     0
  9
$DIMCLRT
 70
     0
  9
$DIMTFAC
 40
1.0
  9
$DIMGAP
 40
0.625
  9
$DIMJUST
 70
     0
  9
$DIMSD1
 70
     0
  9
$DIMSD2
 70
     0
  9
$DIMTOLJ
 70
     1
  9
$DIMTZIN
 70
     0
  9
$DIMALTZ
 70
     0
  9
$DIMALTTZ
 70
     0
  9
$DIMFIT
 70
     3
  9
$DIMUPT
 70
     0
  9
$DIMUNIT
 70
     8
  9
$DIMDEC
 70
     4
  9
$DIMTDEC
 70
     4
  9
$DIMALTU
 70
     8
  9
$DIMALTTD
 70
     4
  9
$DIMTXSTY
  7
STANDARD
  9
$DIMAUNIT
 70
     0
  9
$LUNITS
 70
     2
  9
$LUPREC
 70
     4
  9
$SKETCHINC
 40
1.0
  9
$FILLETRAD
 40
10.0
  9
$AUNITS
 70
     0
  9
$AUPREC
 70
     0
  9
$MENU
  1
.
  9
$ELEVATION
 40
0.0
  9
$PELEVATION
 40
0.0
  9
$THICKNESS
 40
0.0
  9
$LIMCHECK
 70
     0
  9
$BLIPMODE
 70
     0
  9
$CHAMFERA
 40
10.0
  9
$CHAMFERB
 40
10.0
  9
$CHAMFERC
 40
20.0
  9
$CHAMFERD
 40
0.0
  9
$SKPOLY
 70
     0
  9
$TDCREATE
 40
2451430.742102430
  9
$TDUPDATE
 40
2451430.758138310
  9
$TDINDWG
 40
0.0158305556
  9
$TDUSRTIMER
 40
0.0158305556
  9
$USRTIMER
 70
     1
  9
$ANGBASE
 50
0.0
  9
$ANGDIR
 70
     0
  9
$PDMODE
 70
     0
  9
$PDSIZE
 40
0.0
  9
$PLINEWID
 40
0.0
  9
$COORDS
 70
     1
  9
$SPLFRAME
 70
     0
  9
$SPLINETYPE
 70
     6
  9
$SPLINESEGS
 70
     8
  9
$ATTDIA
 70
     0
  9
$ATTREQ
 70
     1
  9
$HANDLING
 70
     1
  9
$HANDSEED
  5
B4D
  9
$SURFTAB1
 70
     6
  9
$SURFTAB2
 70
     6
  9
$SURFTYPE
 70
     6
  9
$SURFU
 70
     6
  9
$SURFV
 70
     6
  9
$UCSNAME
  2

  9
$UCSORG
 10
0.0
 20
0.0
 30
0.0
  9
$UCSXDIR
 10
1.0
 20
0.0
 30
0.0
  9
$UCSYDIR
 10
0.0
 20
1.0
 30
0.0
  9
$PUCSNAME
  2

  9
$PUCSORG
 10
0.0
 20
0.0
 30
0.0
  9
$PUCSXDIR
 10
1.0
 20
0.0
 30
0.0
  9
$PUCSYDIR
 10
0.0
 20
1.0
 30
0.0
  9
$USERI1
 70
     0
  9
$USERI2
 70
     0
  9
$USERI3
 70
     0
  9
$USERI4
 70
     0
  9
$USERI5
 70
     0
  9
$USERR1
 40
0.0
  9
$USERR2
 40
0.0
  9
$USERR3
 40
0.0
  9
$USERR4
 40
0.0
  9
$USERR5
 40
0.0
  9
$WORLDVIEW
 70
     1
  9
$SHADEDGE
 70
     3
  9
$SHADEDIF
 70
    70
  9
$TILEMODE
 70
     1
  9
$MAXACTVP
 70
    48
  9
$PINSBASE
 10
0.0
 20
0.0
 30
0.0
  9
$PLIMCHECK
 70
     0
  9
$PEXTMIN
 10
1.000000E+20
 20
1.000000E+20
 30
1.000000E+20
  9
$PEXTMAX
 10
-1.000000E+20
 20
-1.000000E+20
 30
-1.000000E+20
  9
$PLIMMIN
 10
0.0
 20
0.0
  9
$PLIMMAX
 10
420.0
 20
297.0
  9
$UNITMODE
 70
     0
  9
$VISRETAIN
 70
     1
  9
$PLINEGEN
 70
     0
  9
$PSLTSCALE
 70
     1
  9
$TREEDEPTH
 70
  3020
  9
$PICKSTYLE
 70
     1
  9
$CMLSTYLE
  2
STANDARD
  9
$CMLJUST
 70
     0
  9
$CMLSCALE
 40
20.0
  9
$SAVEIMAGES
 70
     1
  0
ENDSEC
  0
SECTION
  2
CLASSES
  0
CLASS
  1
LWPOLYLINE
  2
AcDbPolyline
  3
"AutoCAD"
 90
    32768
280
     0
281
     1
  0
ENDSEC
  0
SECTION
  2
TABLES
  0
TABLE
  2
VPORT
  5
8
100
AcDbSymbolTable
 70
     6
  0
VPORT
  5
B4C
100
AcDbSymbolTableRecord
100
AcDbViewportTableRecord
  2
*ACTIVE
 70
     0
 10
0.0
 20
0.0
 11
1.0
 21
1.0
 12
54.685365
 22
39.758011
 13
0.0
 23
0.0
 14
10.0
 24
10.0
 15
10.0
 25
10.0
 16
0.0
 26
0.0
 36
1.0
 17
0.0
 27
0.0
 37
0.0
 40
87.410218
 41
1.854342
 42
50.0
 43
0.0
 44
0.0
 50
0.0
 51
0.0
 71
     0
 72
   100
 73
     1
 74
     1
 75
     0
 76
     0
 77
     0
 78
     0
  0
ENDTAB
  0
TABLE
  2
LTYPE
  5
5
100
AcDbSymbolTable
 70
     2
  0
LTYPE
  5
12
100
AcDbSymbolTableRecord
100
AcDbLinetypeTableRecord
  2
BYBLOCK
 70
     0
  3

 72
    65
 73
     0
 40
0.0
  0
LTYPE
  5
13
100
AcDbSymbolTableRecord
100
AcDbLinetypeTableRecord
  2
BYLAYER
 70
     0
  3

 72
    65
 73
     0
 40
0.0
  0
LTYPE
  5
14
100
AcDbSymbolTableRecord
100
AcDbLinetypeTableRecord
  2
CONTINUOUS
 70
     0
  3
Solid line
 72
    65
 73
     0
 40
0.0
  0
LTYPE
  5
4B
100
AcDbSymbolTableRecord
100
AcDbLinetypeTableRecord
  2
DASHED2
 70
     0
  3
_ _ _ _ _ _ _ _ _ _ _ _ _ _ _ _ _ _ _ _ _ _ _ _
 72
    65
 73
     2
 40
0.375
 49
0.25
 74
     0
 49
-0.125
 74
     0
  0
ENDTAB
  0
TABLE
  2
LAYER
  5
2
100
AcDbSymbolTable
 70
    11
  0
LAYER
  5
E
100
AcDbSymbolTableRecord
100
AcDbLayerTableRecord
  2
0
 70
     0
 62
     7
  6
CONTINUOUS
  0
LAYER
  5
4C
100
AcDbSymbolTableRecord
100
AcDbLayerTableRecord
  2
SOLADO
 70
     0
 62
     8
  6
CONTINUOUS
  0
LAYER
  5
4D
100
AcDbSymbolTableRecord
100
AcDbLayerTableRecord
  2
GRILLA
 70
     0
 62
     9
  6
CONTINUOUS
  0
LAYER
  5
4E
100
AcDbSymbolTableRecord
100
AcDbLayerTableRecord
  2
ESTRUCTURA
 70
     0
 62
     1
  6
CONTINUOUS
  0
LAYER
  5
4F
100
AcDbSymbolTableRecord
100
AcDbLayerTableRecord
  2
MURO-02
 70
     0
 62
     7
  6
CONTINUOUS
  0
LAYER
  5
50
100
AcDbSymbolTableRecord
100
AcDbLayerTableRecord
  2
EQUIPAMIENTO
 70
     0
 62
     6
  6
CONTINUOUS
  0
LAYER
  5
51
100
AcDbSymbolTableRecord
100
AcDbLayerTableRecord
  2
CARPINTERIA
 70
     0
 62
     5
  6
CONTINUOUS
  0
LAYER
  5
53
100
AcDbSymbolTableRecord
100
AcDbLayerTableRecord
  2
MURO-01
 70
     0
 62
     2
  6
CONTINUOUS
  0
LAYER
  5
54
100
AcDbSymbolTableRecord
100
AcDbLayerTableRecord
  2
PROYECCION
 70
     0
 62
     3
  6
DASHED2
  0
LAYER
  5
55
100
AcDbSymbolTableRecord
100
AcDbLayerTableRecord
  2
ESCALERA
 70
     0
 62
     3
  6
CONTINUOUS
  0
LAYER
  5
B41
100
AcDbSymbolTableRecord
100
AcDbLayerTableRecord
  2
TEXTO
 70
     0
 62
   252
  6
CONTINUOUS
  0
ENDTAB
  0
TABLE
  2
STYLE
  5
3
100
AcDbSymbolTable
 70
     2
  0
STYLE
  5
F
100
AcDbSymbolTableRecord
100
AcDbTextStyleTableRecord
  2
STANDARD
 70
     0
 40
0.0
 41
1.0
 50
0.0
 71
     0
 42
2.5
  3
txt
  4

  0
STYLE
  5
B42
100
AcDbSymbolTableRecord
100
AcDbTextStyleTableRecord
  2
COMPLEX
 70
     0
 40
0.0
 41
1.0
 50
0.0
 71
     0
 42
2.5
  3
complex.shx
  4

  0
ENDTAB
  0
TABLE
  2
VIEW
  5
6
100
AcDbSymbolTable
 70
     0
  0
ENDTAB
  0
TABLE
  2
UCS
  5
7
100
AcDbSymbolTable
 70
     0
  0
ENDTAB
  0
TABLE
  2
APPID
  5
9
100
AcDbSymbolTable
 70
     1
  0
APPID
  5
10
100
AcDbSymbolTableRecord
100
AcDbRegAppTableRecord
  2
ACAD
 70
     0
  0
ENDTAB
  0
TABLE
  2
DIMSTYLE
  5
A
100
AcDbSymbolTable
 70
     2
  0
DIMSTYLE
105
1D
100
AcDbSymbolTableRecord
100
AcDbDimStyleTableRecord
  2
STANDARD
 70
     0
  3

  4

  5

  6

  7

 40
1.0
 41
0.18
 42
0.0625
 43
0.38
 44
0.18
 45
0.0
 46
0.0
 47
0.0
 48
0.0
140
0.18
141
0.09
142
0.0
143
25.4
144
1.0
145
0.0
146
1.0
147
0.09
 71
     0
 72
     0
 73
     1
 74
     1
 75
     0
 76
     0
 77
     0
 78
     0
170
     0
171
     2
172
     0
173
     0
174
     0
175
     0
176
     0
177
     0
178
     0
270
     2
271
     4
272
     4
273
     2
274
     2
340
F
275
     0
280
     0
281
     0
282
     0
283
     1
284
     0
285
     0
286
     0
287
     3
288
     0
  0
DIMSTYLE
105
B43
100
AcDbSymbolTableRecord
100
AcDbDimStyleTableRecord
  2
ISO-25
 70
     0
  3

  4

  5

  6

  7

 40
1.0
 41
2.5
 42
0.625
 43
3.75
 44
1.25
 45
0.0
 46
0.0
 47
0.0
 48
0.0
140
2.5
141
2.5
142
0.0
143
0.0394
144
1.0
145
1.0
146
1.0
147
0.625
 71
     0
 72
     0
 73
     1
 74
     0
 75
     0
 76
     0
 77
     1
 78
     8
170
     0
171
     2
172
     1
173
     0
174
     0
175
     0
176
     0
177
     0
178
     0
270
     2
271
     4
272
     4
273
     2
274
     2
340
F
275
     0
280
     0
281
     0
282
     0
283
     1
284
     0
285
     0
286
     0
287
     3
288
     0
  0
ENDTAB
  0
TABLE
  2
BLOCK_RECORD
  5
1
100
AcDbSymbolTable
 70
     7
  0
BLOCK_RECORD
  5
18
100
AcDbSymbolTableRecord
100
AcDbBlockTableRecord
  2
*MODEL_SPACE
  0
BLOCK_RECORD
  5
15
100
AcDbSymbolTableRecord
100
AcDbBlockTableRecord
  2
*PAPER_SPACE
  0
BLOCK_RECORD
  5
20
100
AcDbSymbolTableRecord
100
AcDbBlockTableRecord
  2
COLUMNA
  0
BLOCK_RECORD
  5
24
100
AcDbSymbolTableRecord
100
AcDbBlockTableRecord
  2
MUEBLE1
  0
BLOCK_RECORD
  5
2C
100
AcDbSymbolTableRecord
100
AcDbBlockTableRecord
  2
MUEBLE2
  0
BLOCK_RECORD
  5
34
100
AcDbSymbolTableRecord
100
AcDbBlockTableRecord
  2
MUEBLE3
  0
BLOCK_RECORD
  5
3C
100
AcDbSymbolTableRecord
100
AcDbBlockTableRecord
  2
MUEBLE4
  0
BLOCK_RECORD
  5
44
100
AcDbSymbolTableRecord
100
AcDbBlockTableRecord
  2
MUEBLE5
  0
BLOCK_RECORD
  5
B44
100
AcDbSymbolTableRecord
100
AcDbBlockTableRecord
  2
A$C255A3D6D
  0
ENDTAB
  0
ENDSEC
  0
SECTION
  2
BLOCKS
  0
BLOCK
  5
19
100
AcDbEntity
  8
0
100
AcDbBlockBegin
  2
*MODEL_SPACE
 70
     0
 10
0.0
 20
0.0
 30
0.0
  3
*MODEL_SPACE
  1

  0
ENDBLK
  5
1A
100
AcDbEntity
  8
0
100
AcDbBlockEnd
  0
BLOCK
  5
16
100
AcDbEntity
 67
     1
  8
0
100
AcDbBlockBegin
  2
*PAPER_SPACE
 70
     0
 10
0.0
 20
0.0
 30
0.0
  3
*PAPER_SPACE
  1

  0
ENDBLK
  5
17
100
AcDbEntity
 67
     1
  8
0
100
AcDbBlockEnd
  0
BLOCK
  5
22
100
AcDbEntity
  8
0
100
AcDbBlockBegin
  2
COLUMNA
 70
     0
 10
0.0
 20
0.0
 30
0.0
  3
COLUMNA
  1

  0
CIRCLE
  5
21
100
AcDbEntity
  8
0
100
AcDbCircle
 10
0.0
 20
0.0
 30
0.0
 40
0.2
  0
ENDBLK
  5
23
100
AcDbEntity
  8
0
100
AcDbBlockEnd
  0
BLOCK
  5
2A
100
AcDbEntity
  8
0
100
AcDbBlockBegin
  2
MUEBLE1
 70
     0
 10
0.0
 20
0.0
 30
0.0
  3
MUEBLE1
  1

  0
LINE
  5
25
100
AcDbEntity
  8
0
100
AcDbLine
 10
0.8
 20
-4.8
 30
0.0
 11
0.8
 21
0.0
 31
0.0
  0
LINE
  5
26
100
AcDbEntity
  8
0
100
AcDbLine
 10
0.0
 20
0.0
 30
0.0
 11
0.0
 21
-4.8
 31
0.0
  0
LINE
  5
27
100
AcDbEntity
  8
0
100
AcDbLine
 10
-0.8
 20
0.0
 30
0.0
 11
-0.8
 21
-4.8
 31
0.0
  0
LINE
  5
28
100
AcDbEntity
  8
0
100
AcDbLine
 10
0.8
 20
0.0
 30
0.0
 11
-0.8
 21
0.0
 31
0.0
  0
LINE
  5
29
100
AcDbEntity
  8
0
100
AcDbLine
 10
-0.8
 20
-4.8
 30
0.0
 11
0.8
 21
-4.8
 31
0.0
  0
ENDBLK
  5
2B
100
AcDbEntity
  8
0
100
AcDbBlockEnd
  0
BLOCK
  5
32
100
AcDbEntity
  8
0
100
AcDbBlockBegin
  2
MUEBLE2
 70
     0
 10
0.0
 20
0.0
 30
0.0
  3
MUEBLE2
  1

  0
LINE
  5
2D
100
AcDbEntity
  8
0
100
AcDbLine
 10
0.0
 20
0.0
 30
0.0
 11
0.0
 21
-3.6
 31
0.0
  0
LINE
  5
2E
100
AcDbEntity
  8
0
100
AcDbLine
 10
-0.8
 20
0.0
 30
0.0
 11
0.8
 21
0.0
 31
0.0
  0
LINE
  5
2F
100
AcDbEntity
  8
0
100
AcDbLine
 10
-0.8
 20
-3.6
 30
0.0
 11
-0.8
 21
0.0
 31
0.0
  0
LINE
  5
30
100
AcDbEntity
  8
0
100
AcDbLine
 10
0.8
 20
0.0
 30
0.0
 11
0.8
 21
-3.6
 31
0.0
  0
LINE
  5
31
100
AcDbEntity
  8
0
100
AcDbLine
 10
0.8
 20
-3.6
 30
0.0
 11
-0.8
 21
-3.6
 31
0.0
  0
ENDBLK
  5
33
100
AcDbEntity
  8
0
100
AcDbBlockEnd
  0
BLOCK
  5
3A
100
AcDbEntity
  8
0
100
AcDbBlockBegin
  2
MUEBLE3
 70
     0
 10
0.0
 20
0.0
 30
0.0
  3
MUEBLE3
  1

  0
LINE
  5
35
100
AcDbEntity
  8
0
100
AcDbLine
 10
0.8
 20
0.0
 30
0.0
 11
0.8
 21
-14.8
 31
0.0
  0
LINE
  5
36
100
AcDbEntity
  8
0
100
AcDbLine
 10
0.0
 20
0.0
 30
0.0
 11
0.0
 21
-14.8
 31
0.0
  0
LINE
  5
37
100
AcDbEntity
  8
0
100
AcDbLine
 10
-0.8
 20
-14.8
 30
0.0
 11
-0.8
 21
0.0
 31
0.0
  0
LINE
  5
38
100
AcDbEntity
  8
0
100
AcDbLine
 10
-0.8
 20
0.0
 30
0.0
 11
0.8
 21
0.0
 31
0.0
  0
LINE
  5
39
100
AcDbEntity
  8
0
100
AcDbLine
 10
0.8
 20
-14.8
 30
0.0
 11
-0.8
 21
-14.8
 31
0.0
  0
ENDBLK
  5
3B
100
AcDbEntity
  8
0
100
AcDbBlockEnd
  0
BLOCK
  5
42
100
AcDbEntity
  8
0
100
AcDbBlockBegin
  2
MUEBLE4
 70
     0
 10
0.0
 20
0.0
 30
0.0
  3
MUEBLE4
  1

  0
LINE
  5
3D
100
AcDbEntity
  8
EQUIPAMIENTO
100
AcDbLine
 10
0.0
 20
0.0
 30
0.0
 11
0.0
 21
-14.8
 31
0.0
  0
LINE
  5
3E
100
AcDbEntity
  8
EQUIPAMIENTO
100
AcDbLine
 10
-1.0
 20
-14.8
 30
0.0
 11
-1.0
 21
0.0
 31
0.0
  0
LINE
  5
3F
100
AcDbEntity
  8
EQUIPAMIENTO
100
AcDbLine
 10
-1.0
 20
0.0
 30
0.0
 11
1.0
 21
0.0
 31
0.0
  0
LINE
  5
40
100
AcDbEntity
  8
EQUIPAMIENTO
100
AcDbLine
 10
1.0
 20
0.0
 30
0.0
 11
1.0
 21
-14.8
 31
0.0
  0
LINE
  5
41
100
AcDbEntity
  8
EQUIPAMIENTO
100
AcDbLine
 10
1.0
 20
-14.8
 30
0.0
 11
-1.0
 21
-14.8
 31
0.0
  0
ENDBLK
  5
43
100
AcDbEntity
  8
0
100
AcDbBlockEnd
  0
BLOCK
  5
49
100
AcDbEntity
  8
0
100
AcDbBlockBegin
  2
MUEBLE5
 70
     0
 10
0.0
 20
0.0
 30
0.0
  3
MUEBLE5
  1

  0
LINE
  5
45
100
AcDbEntity
  8
0
100
AcDbLine
 10
0.8
 20
-2.0
 30
0.0
 11
0.8
 21
0.0
 31
0.0
  0
LINE
  5
46
100
AcDbEntity
  8
0
100
AcDbLine
 10
-0.8
 20
0.0
 30
0.0
 11
-0.8
 21
-2.0
 31
0.0
  0
LINE
  5
47
100
AcDbEntity
  8
0
100
AcDbLine
 10
-0.8
 20
-2.0
 30
0.0
 11
0.8
 21
-2.0
 31
0.0
  0
LINE
  5
48
100
AcDbEntity
  8
0
100
AcDbLine
 10
0.8
 20
0.0
 30
0.0
 11
-0.8
 21
0.0
 31
0.0
  0
ENDBLK
  5
4A
100
AcDbEntity
  8
0
100
AcDbBlockEnd
  0
BLOCK
  5
B46
100
AcDbEntity
  8
0
100
AcDbBlockBegin
  2
A$C255A3D6D
 70
     0
 10
0.0
 20
0.0
 30
0.0
  3
A$C255A3D6D
  1

  0
TEXT
  5
B45
100
AcDbEntity
  8
TEXTO
  6
DASHED2
 48
0.6
100
AcDbText
 10
0.0
 20
0.0
 30
0.0
 40
2.5
  1
PLANTA 1%%D NIVEL
  7
COMPLEX
 72
     2
 11
33.571429
 21
0.0
 31
0.0
100
AcDbText
  0
ENDBLK
  5
B47
100
AcDbEntity
  8
0
100
AcDbBlockEnd
  0
ENDSEC
  0
SECTION
  2
ENTITIES
  0
LINE
  5
5B0
100
AcDbEntity
  8
ESCALERA
100
AcDbLine
 10
47.68131
 20
50.010819
 30
0.0
 11
59.38131
 21
51.260819
 31
0.0
  0
LINE
  5
5B1
100
AcDbEntity
  8
PROYECCION
 48
0.8
100
AcDbLine
 10
47.68131
 20
49.610819
 30
0.0
 11
71.08131
 21
49.610819
 31
0.0
  0
LINE
  5
5B2
100
AcDbEntity
  8
PROYECCION
100
AcDbLine
 10
99.28131
 20
0.0
 30
0.0
 11
0.0
 21
33.09377
 31
0.0
  0
LINE
  5
5B3
100
AcDbEntity
  8
PROYECCION
100
AcDbLine
 10
0.0
 20
33.09377
 30
0.0
 11
99.28131
 21
82.734425
 31
0.0
  0
ARC
  5
5B6
100
AcDbEntity
  8
CARPINTERIA
100
AcDbCircle
 10
216.651247
 20
-281.702316
 30
0.0
 40
377.182334
100
AcDbArc
 50
108.89101
 51
123.912892
  0
LINE
  5
5B7
100
AcDbEntity
  8
CARPINTERIA
100
AcDbLine
 10
6.295292
 20
31.37417
 30
0.0
 11
94.53131
 21
3.441829
 31
0.0
  0
ARC
  5
5B9
100
AcDbEntity
  8
CARPINTERIA
100
AcDbCircle
 10
216.651247
 20
-281.702316
 30
0.0
 40
377.232334
100
AcDbArc
 50
108.880385
 51
123.912892
  0
LINE
  5
5BA
100
AcDbEntity
  8
EQUIPAMIENTO
100
AcDbLine
 10
58.657127
 20
15.844694
 30
0.0
 11
59.057127
 21
15.718069
 31
0.0
  0
LINE
  5
5BB
100
AcDbEntity
  8
EQUIPAMIENTO
100
AcDbLine
 10
58.657127
 20
20.210819
 30
0.0
 11
59.057127
 21
20.210819
 31
0.0
  0
LINE
  5
5BC
100
AcDbEntity
  8
CARPINTERIA
100
AcDbLine
 10
6.18131
 20
31.357806
 30
0.0
 11
94.58131
 21
3.373555
 31
0.0
  0
LINE
  5
5BD
100
AcDbEntity
  8
ESCALERA
100
AcDbLine
 10
47.68131
 20
51.260819
 30
0.0
 11
71.08131
 21
51.260819
 31
0.0
  0
LINE
  5
5BE
100
AcDbEntity
  8
ESCALERA
100
AcDbLine
 10
47.68131
 20
51.010819
 30
0.0
 11
71.08131
 21
51.010819
 31
0.0
  0
LINE
  5
5BF
100
AcDbEntity
  8
ESCALERA
100
AcDbLine
 10
47.68131
 20
50.760819
 30
0.0
 11
71.08131
 21
50.760819
 31
0.0
  0
LINE
  5
5C0
100
AcDbEntity
  8
ESCALERA
100
AcDbLine
 10
47.68131
 20
50.510819
 30
0.0
 11
71.08131
 21
50.510819
 31
0.0
  0
LINE
  5
5C1
100
AcDbEntity
  8
ESCALERA
100
AcDbLine
 10
47.68131
 20
50.260819
 30
0.0
 11
71.08131
 21
50.260819
 31
0.0
  0
LINE
  5
5C2
100
AcDbEntity
  8
ESCALERA
100
AcDbLine
 10
47.68131
 20
50.010819
 30
0.0
 11
71.08131
 21
50.010819
 31
0.0
  0
LINE
  5
5C3
100
AcDbEntity
  8
EQUIPAMIENTO
100
AcDbLine
 10
47.68131
 20
41.810819
 30
0.0
 11
71.08131
 21
41.810819
 31
0.0
  0
LINE
  5
5C4
100
AcDbEntity
  8
EQUIPAMIENTO
100
AcDbLine
 10
47.68131
 20
42.210819
 30
0.0
 11
67.68131
 21
42.210819
 31
0.0
  0
LINE
  5
5C5
100
AcDbEntity
  8
MURO-02
100
AcDbLine
 10
50.88131
 20
22.010819
 30
0.0
 11
59.88131
 21
22.010819
 31
0.0
  0
LINE
  5
5C6
100
AcDbEntity
  8
MURO-02
100
AcDbLine
 10
50.88131
 20
21.810819
 30
0.0
 11
89.98131
 21
21.810819
 31
0.0
  0
LINE
  5
5C7
100
AcDbEntity
  8
MURO-02
100
AcDbLine
 10
54.28131
 20
44.310819
 30
0.0
 11
59.08131
 21
44.310819
 31
0.0
  0
LINE
  5
5C8
100
AcDbEntity
  8
MURO-02
100
AcDbLine
 10
59.08131
 20
44.410819
 30
0.0
 11
57.03131
 21
44.410819
 31
0.0
  0
LINE
  5
5D2
100
AcDbEntity
  8
SOLADO
100
AcDbLine
 10
47.08131
 20
21.810819
 30
0.0
 11
89.98131
 21
21.810819
 31
0.0
  0
LINE
  5
5D3
100
AcDbEntity
  8
SOLADO
100
AcDbLine
 10
47.08131
 20
49.610819
 30
0.0
 11
71.08131
 21
49.610819
 31
0.0
  0
LINE
  5
5D6
100
AcDbEntity
  8
SOLADO
100
AcDbLine
 10
47.28131
 20
49.610819
 30
0.0
 11
71.08131
 21
49.610819
 31
0.0
  0
LINE
  5
5D7
100
AcDbEntity
  8
SOLADO
100
AcDbLine
 10
47.08131
 20
21.810819
 30
0.0
 11
89.98131
 21
21.810819
 31
0.0
  0
LINE
  5
5D8
100
AcDbEntity
  8
SOLADO
100
AcDbLine
 10
47.28131
 20
49.610819
 30
0.0
 11
71.08131
 21
49.610819
 31
0.0
  0
LINE
  5
5EB
100
AcDbEntity
  8
SOLADO
100
AcDbLine
 10
47.28131
 20
49.610819
 30
0.0
 11
71.08131
 21
49.610819
 31
0.0
  0
LINE
  5
5EC
100
AcDbEntity
  8
SOLADO
100
AcDbLine
 10
47.08131
 20
21.810819
 30
0.0
 11
89.98131
 21
21.810819
 31
0.0
  0
LINE
  5
5ED
100
AcDbEntity
  8
SOLADO
100
AcDbLine
 10
47.28131
 20
49.610819
 30
0.0
 11
71.08131
 21
49.610819
 31
0.0
  0
LINE
  5
5F0
100
AcDbEntity
  8
SOLADO
100
AcDbLine
 10
47.28131
 20
49.610819
 30
0.0
 11
71.08131
 21
49.610819
 31
0.0
  0
LINE
  5
5F1
100
AcDbEntity
  8
SOLADO
100
AcDbLine
 10
47.08131
 20
21.810819
 30
0.0
 11
89.98131
 21
21.810819
 31
0.0
  0
LINE
  5
5F2
100
AcDbEntity
  8
SOLADO
100
AcDbLine
 10
47.28131
 20
49.610819
 30
0.0
 11
71.08131
 21
49.610819
 31
0.0
  0
LINE
  5
605
100
AcDbEntity
  8
SOLADO
100
AcDbLine
 10
47.28131
 20
49.610819
 30
0.0
 11
71.08131
 21
49.610819
 31
0.0
  0
LINE
  5
606
100
AcDbEntity
  8
SOLADO
100
AcDbLine
 10
47.08131
 20
21.810819
 30
0.0
 11
89.98131
 21
21.810819
 31
0.0
  0
LINE
  5
607
100
AcDbEntity
  8
SOLADO
100
AcDbLine
 10
47.28131
 20
49.610819
 30
0.0
 11
71.08131
 21
49.610819
 31
0.0
  0
LINE
  5
60A
100
AcDbEntity
  8
SOLADO
100
AcDbLine
 10
47.28131
 20
49.610819
 30
0.0
 11
71.08131
 21
49.610819
 31
0.0
  0
LINE
  5
60B
100
AcDbEntity
  8
SOLADO
100
AcDbLine
 10
47.08131
 20
21.810819
 30
0.0
 11
89.98131
 21
21.810819
 31
0.0
  0
LINE
  5
60C
100
AcDbEntity
  8
SOLADO
100
AcDbLine
 10
47.28131
 20
49.610819
 30
0.0
 11
71.08131
 21
49.610819
 31
0.0
  0
LINE
  5
61F
100
AcDbEntity
  8
SOLADO
100
AcDbLine
 10
47.28131
 20
49.610819
 30
0.0
 11
71.08131
 21
49.610819
 31
0.0
  0
LINE
  5
620
100
AcDbEntity
  8
SOLADO
100
AcDbLine
 10
47.08131
 20
21.810819
 30
0.0
 11
89.98131
 21
21.810819
 31
0.0
  0
LINE
  5
621
100
AcDbEntity
  8
SOLADO
100
AcDbLine
 10
47.28131
 20
49.610819
 30
0.0
 11
71.08131
 21
49.610819
 31
0.0
  0
LINE
  5
624
100
AcDbEntity
  8
SOLADO
100
AcDbLine
 10
47.28131
 20
49.610819
 30
0.0
 11
71.08131
 21
49.610819
 31
0.0
  0
LINE
  5
625
100
AcDbEntity
  8
SOLADO
100
AcDbLine
 10
47.08131
 20
21.810819
 30
0.0
 11
89.98131
 21
21.810819
 31
0.0
  0
LINE
  5
626
100
AcDbEntity
  8
SOLADO
100
AcDbLine
 10
47.28131
 20
49.610819
 30
0.0
 11
71.08131
 21
49.610819
 31
0.0
  0
INSERT
  5
630
100
AcDbEntity
  8
EQUIPAMIENTO
100
AcDbBlockReference
  2
MUEBLE3
 10
57.08131
 20
37.210819
 30
0.0
  0
LINE
  5
631
100
AcDbEntity
  8
EQUIPAMIENTO
100
AcDbLine
 10
57.08131
 20
37.210819
 30
0.0
 11
57.08131
 21
32.410819
 31
0.0
  0
INSERT
  5
632
100
AcDbEntity
  8
EQUIPAMIENTO
100
AcDbBlockReference
  2
MUEBLE1
 10
54.28131
 20
37.210819
 30
0.0
  0
LINE
  5
633
100
AcDbEntity
  8
EQUIPAMIENTO
100
AcDbLine
 10
51.68131
 20
22.410819
 30
0.0
 11
51.68131
 21
37.210819
 31
0.0
  0
LINE
  5
634
100
AcDbEntity
  8
EQUIPAMIENTO
100
AcDbLine
 10
49.68131
 20
37.210819
 30
0.0
 11
49.68131
 21
22.410819
 31
0.0
  0
LINE
  5
635
100
AcDbEntity
  8
EQUIPAMIENTO
100
AcDbLine
 10
52.18131
 20
37.210819
 30
0.0
 11
52.18131
 21
22.410819
 31
0.0
  0
LINE
  5
636
100
AcDbEntity
  8
EQUIPAMIENTO
100
AcDbLine
 10
51.18131
 20
37.210819
 30
0.0
 11
51.18131
 21
22.410819
 31
0.0
  0
LINE
  5
637
100
AcDbEntity
  8
EQUIPAMIENTO
100
AcDbLine
 10
50.18131
 20
37.210819
 30
0.0
 11
50.18131
 21
22.410819
 31
0.0
  0
LINE
  5
638
100
AcDbEntity
  8
EQUIPAMIENTO
100
AcDbLine
 10
49.18131
 20
37.210819
 30
0.0
 11
49.18131
 21
22.410819
 31
0.0
  0
LINE
  5
639
100
AcDbEntity
  8
EQUIPAMIENTO
100
AcDbLine
 10
48.18131
 20
37.210819
 30
0.0
 11
48.18131
 21
25.010819
 31
0.0
  0
LINE
  5
63A
100
AcDbEntity
  8
MURO-02
100
AcDbLine
 10
47.58131
 20
42.110819
 30
0.0
 11
47.58131
 21
25.110819
 31
0.0
  0
LINE
  5
63B
100
AcDbEntity
  8
MURO-02
100
AcDbLine
 10
47.28131
 20
42.110819
 30
0.0
 11
47.28131
 21
25.110819
 31
0.0
  0
LINE
  5
63C
100
AcDbEntity
  8
MURO-02
100
AcDbLine
 10
47.68131
 20
42.210819
 30
0.0
 11
47.68131
 21
22.010819
 31
0.0
  0
LINE
  5
647
100
AcDbEntity
  8
SOLADO
100
AcDbLine
 10
47.08131
 20
21.810819
 30
0.0
 11
47.08131
 21
49.610819
 31
0.0
  0
LINE
  5
648
100
AcDbEntity
  8
SOLADO
100
AcDbLine
 10
47.58131
 20
21.810819
 30
0.0
 11
47.58131
 21
49.610819
 31
0.0
  0
LINE
  5
649
100
AcDbEntity
  8
SOLADO
100
AcDbLine
 10
47.58131
 20
21.810819
 30
0.0
 11
47.58131
 21
49.510819
 31
0.0
  0
LINE
  5
64A
100
AcDbEntity
  8
SOLADO
100
AcDbLine
 10
47.08131
 20
21.810819
 30
0.0
 11
47.08131
 21
49.610819
 31
0.0
  0
LINE
  5
65F
100
AcDbEntity
  8
SOLADO
100
AcDbLine
 10
47.08131
 20
21.810819
 30
0.0
 11
47.08131
 21
49.610819
 31
0.0
  0
LINE
  5
660
100
AcDbEntity
  8
SOLADO
100
AcDbLine
 10
47.58131
 20
21.810819
 30
0.0
 11
47.58131
 21
49.510819
 31
0.0
  0
LINE
  5
661
100
AcDbEntity
  8
SOLADO
100
AcDbLine
 10
47.58131
 20
21.810819
 30
0.0
 11
47.58131
 21
49.510819
 31
0.0
  0
LINE
  5
662
100
AcDbEntity
  8
SOLADO
100
AcDbLine
 10
47.08131
 20
21.810819
 30
0.0
 11
47.08131
 21
49.610819
 31
0.0
  0
LINE
  5
677
100
AcDbEntity
  8
SOLADO
100
AcDbLine
 10
47.08131
 20
21.810819
 30
0.0
 11
47.08131
 21
49.610819
 31
0.0
  0
LINE
  5
678
100
AcDbEntity
  8
SOLADO
100
AcDbLine
 10
47.58131
 20
21.810819
 30
0.0
 11
47.58131
 21
49.510819
 31
0.0
  0
LINE
  5
679
100
AcDbEntity
  8
SOLADO
100
AcDbLine
 10
47.58131
 20
21.810819
 30
0.0
 11
47.58131
 21
49.510819
 31
0.0
  0
LINE
  5
67A
100
AcDbEntity
  8
SOLADO
100
AcDbLine
 10
47.08131
 20
21.810819
 30
0.0
 11
47.08131
 21
49.610819
 31
0.0
  0
LINE
  5
68F
100
AcDbEntity
  8
SOLADO
100
AcDbLine
 10
47.08131
 20
21.810819
 30
0.0
 11
47.08131
 21
49.610819
 31
0.0
  0
LINE
  5
690
100
AcDbEntity
  8
SOLADO
100
AcDbLine
 10
47.58131
 20
21.810819
 30
0.0
 11
47.58131
 21
49.510819
 31
0.0
  0
LINE
  5
691
100
AcDbEntity
  8
MURO-02
100
AcDbLine
 10
47.08131
 20
49.610819
 30
0.0
 11
47.08131
 21
25.010819
 31
0.0
  0
LINE
  5
692
100
AcDbEntity
  8
SOLADO
100
AcDbLine
 10
47.58131
 20
21.810819
 30
0.0
 11
47.58131
 21
49.510819
 31
0.0
  0
LINE
  5
693
100
AcDbEntity
  8
SOLADO
100
AcDbLine
 10
47.08131
 20
21.810819
 30
0.0
 11
47.08131
 21
49.610819
 31
0.0
  0
INSERT
  5
69E
100
AcDbEntity
  8
ESTRUCTURA
100
AcDbBlockReference
  2
COLUMNA
 10
15.08131
 20
32.010819
 30
0.0
  0
INSERT
  5
69F
100
AcDbEntity
  8
ESTRUCTURA
100
AcDbBlockReference
  2
COLUMNA
 10
3.88131
 20
32.010819
 30
0.0
  0
INSERT
  5
6A0
100
AcDbEntity
  8
ESTRUCTURA
100
AcDbBlockReference
  2
COLUMNA
 10
9.48131
 20
32.010819
 30
0.0
  0
INSERT
  5
6A1
100
AcDbEntity
  8
ESTRUCTURA
100
AcDbBlockReference
  2
COLUMNA
 10
20.68131
 20
26.410819
 30
0.0
  0
INSERT
  5
6A2
100
AcDbEntity
  8
ESTRUCTURA
100
AcDbBlockReference
  2
COLUMNA
 10
20.68131
 20
32.010819
 30
0.0
  0
INSERT
  5
6A3
100
AcDbEntity
  8
ESTRUCTURA
100
AcDbBlockReference
  2
COLUMNA
 10
26.28131
 20
26.410819
 30
0.0
  0
INSERT
  5
6A4
100
AcDbEntity
  8
ESTRUCTURA
100
AcDbBlockReference
  2
COLUMNA
 10
26.28131
 20
32.010819
 30
0.0
  0
INSERT
  5
6A5
100
AcDbEntity
  8
ESTRUCTURA
100
AcDbBlockReference
  2
COLUMNA
 10
31.88131
 20
26.410819
 30
0.0
  0
INSERT
  5
6A6
100
AcDbEntity
  8
ESTRUCTURA
100
AcDbBlockReference
  2
COLUMNA
 10
31.88131
 20
32.010819
 30
0.0
  0
LINE
  5
6A7
100
AcDbEntity
  8
EQUIPAMIENTO
100
AcDbLine
 10
55.477059
 20
20.210819
 30
0.0
 11
55.477059
 21
16.851389
 31
0.0
  0
LINE
  5
6A8
100
AcDbEntity
  8
EQUIPAMIENTO
100
AcDbLine
 10
55.277059
 20
20.210819
 30
0.0
 11
55.277059
 21
16.914702
 31
0.0
  0
LINE
  5
6A9
100
AcDbEntity
  8
EQUIPAMIENTO
100
AcDbLine
 10
57.292283
 20
20.210819
 30
0.0
 11
57.292283
 21
16.276754
 31
0.0
  0
LINE
  5
6AA
100
AcDbEntity
  8
EQUIPAMIENTO
100
AcDbLine
 10
56.892283
 20
20.210819
 30
0.0
 11
56.892283
 21
16.40338
 31
0.0
  0
LINE
  5
6AB
100
AcDbEntity
  8
EQUIPAMIENTO
100
AcDbLine
 10
55.077059
 20
20.210819
 30
0.0
 11
55.077059
 21
16.978015
 31
0.0
  0
LINE
  5
6AC
100
AcDbEntity
  8
EQUIPAMIENTO
100
AcDbLine
 10
57.092283
 20
20.210819
 30
0.0
 11
57.092283
 21
16.340067
 31
0.0
  0
LINE
  5
6AD
100
AcDbEntity
  8
EQUIPAMIENTO
100
AcDbLine
 10
58.657127
 20
20.210819
 30
0.0
 11
58.657127
 21
15.844694
 31
0.0
  0
LINE
  5
6AE
100
AcDbEntity
  8
EQUIPAMIENTO
100
AcDbLine
 10
58.857127
 20
20.210819
 30
0.0
 11
58.857127
 21
15.781381
 31
0.0
  0
INSERT
  5
6AF
100
AcDbEntity
  8
ESTRUCTURA
100
AcDbBlockReference
  2
COLUMNA
 10
54.28131
 20
15.210819
 30
0.0
  0
LINE
  5
6B0
100
AcDbEntity
  8
EQUIPAMIENTO
100
AcDbLine
 10
55.077059
 20
16.978015
 30
0.0
 11
55.477059
 21
16.851389
 31
0.0
  0
LINE
  5
6B1
100
AcDbEntity
  8
EQUIPAMIENTO
100
AcDbLine
 10
56.892283
 20
16.40338
 30
0.0
 11
57.292283
 21
16.276754
 31
0.0
  0
LINE
  5
6B2
100
AcDbEntity
  8
EQUIPAMIENTO
100
AcDbLine
 10
47.68131
 20
25.010819
 30
0.0
 11
48.18131
 21
25.010819
 31
0.0
  0
LINE
  5
6B3
100
AcDbEntity
  8
EQUIPAMIENTO
100
AcDbLine
 10
47.68131
 20
23.010819
 30
0.0
 11
48.18131
 21
23.010819
 31
0.0
  0
LINE
  5
6B4
100
AcDbEntity
  8
MURO-02
100
AcDbLine
 10
47.68131
 20
22.010819
 30
0.0
 11
48.88131
 21
22.010819
 31
0.0
  0
LINE
  5
6B5
100
AcDbEntity
  8
MURO-02
100
AcDbLine
 10
47.08131
 20
21.810819
 30
0.0
 11
48.88131
 21
21.810819
 31
0.0
  0
INSERT
  5
6B6
100
AcDbEntity
  8
ESTRUCTURA
100
AcDbBlockReference
  2
COLUMNA
 10
37.48131
 20
20.810819
 30
0.0
  0
LINE
  5
6B7
100
AcDbEntity
  8
EQUIPAMIENTO
100
AcDbLine
 10
47.222279
 20
21.810819
 30
0.0
 11
47.222279
 21
18.365716
 31
0.0
  0
INSERT
  5
6B8
100
AcDbEntity
  8
ESTRUCTURA
100
AcDbBlockReference
  2
COLUMNA
 10
43.08131
 20
20.810819
 30
0.0
  0
LINE
  5
6B9
100
AcDbEntity
  8
EQUIPAMIENTO
100
AcDbLine
 10
47.622279
 20
20.210819
 30
0.0
 11
47.622279
 21
19.337929
 31
0.0
  0
LINE
  5
6BA
100
AcDbEntity
  8
EQUIPAMIENTO
100
AcDbLine
 10
47.822279
 20
20.210819
 30
0.0
 11
47.822279
 21
19.274616
 31
0.0
  0
LINE
  5
6BB
100
AcDbEntity
  8
EQUIPAMIENTO
100
AcDbLine
 10
47.422279
 20
19.401242
 30
0.0
 11
47.822279
 21
19.274616
 31
0.0
  0
LINE
  5
6BC
100
AcDbEntity
  8
EQUIPAMIENTO
100
AcDbLine
 10
47.422279
 20
20.210819
 30
0.0
 11
47.822279
 21
20.210819
 31
0.0
  0
LINE
  5
6BD
100
AcDbEntity
  8
EQUIPAMIENTO
100
AcDbLine
 10
47.422279
 20
20.210819
 30
0.0
 11
47.422279
 21
19.401242
 31
0.0
  0
LINE
  5
6BE
100
AcDbEntity
  8
MURO-02
100
AcDbLine
 10
47.58131
 20
23.910819
 30
0.0
 11
47.58131
 21
23.010819
 31
0.0
  0
LINE
  5
6BF
100
AcDbEntity
  8
MURO-02
100
AcDbLine
 10
47.58131
 20
22.910819
 30
0.0
 11
47.58131
 21
22.010819
 31
0.0
  0
LINE
  5
6C0
100
AcDbEntity
  8
MURO-02
100
AcDbLine
 10
47.58131
 20
22.910819
 30
0.0
 11
47.28131
 21
22.910819
 31
0.0
  0
LINE
  5
6C1
100
AcDbEntity
  8
MURO-02
100
AcDbLine
 10
47.58131
 20
23.010819
 30
0.0
 11
47.08131
 21
23.010819
 31
0.0
  0
LINE
  5
6C2
100
AcDbEntity
  8
MURO-02
100
AcDbLine
 10
47.28131
 20
22.910819
 30
0.0
 11
47.28131
 21
22.010819
 31
0.0
  0
LINE
  5
6C3
100
AcDbEntity
  8
MURO-02
100
AcDbLine
 10
47.08131
 20
23.010819
 30
0.0
 11
47.08131
 21
21.810819
 31
0.0
  0
LINE
  5
6C4
100
AcDbEntity
  8
MURO-02
100
AcDbLine
 10
47.28131
 20
22.010819
 30
0.0
 11
47.58131
 21
22.010819
 31
0.0
  0
LINE
  5
6C5
100
AcDbEntity
  8
MURO-02
100
AcDbLine
 10
47.58131
 20
24.010819
 30
0.0
 11
47.58131
 21
23.910819
 31
0.0
  0
LINE
  5
6C6
100
AcDbEntity
  8
MURO-02
100
AcDbLine
 10
47.58131
 20
25.010819
 30
0.0
 11
47.58131
 21
24.010819
 31
0.0
  0
LINE
  5
6C7
100
AcDbEntity
  8
MURO-02
100
AcDbLine
 10
47.58131
 20
25.110819
 30
0.0
 11
47.28131
 21
25.110819
 31
0.0
  0
LINE
  5
6C8
100
AcDbEntity
  8
MURO-02
100
AcDbLine
 10
47.58131
 20
25.010819
 30
0.0
 11
47.08131
 21
25.010819
 31
0.0
  0
INSERT
  5
6C9
100
AcDbEntity
  8
ESTRUCTURA
100
AcDbBlockReference
  2
COLUMNA
 10
37.48131
 20
26.410819
 30
0.0
  0
INSERT
  5
6CA
100
AcDbEntity
  8
ESTRUCTURA
100
AcDbBlockReference
  2
COLUMNA
 10
37.48131
 20
32.010819
 30
0.0
  0
INSERT
  5
6CB
100
AcDbEntity
  8
ESTRUCTURA
100
AcDbBlockReference
  2
COLUMNA
 10
43.08131
 20
26.410819
 30
0.0
  0
INSERT
  5
6CC
100
AcDbEntity
  8
ESTRUCTURA
100
AcDbBlockReference
  2
COLUMNA
 10
43.08131
 20
32.010819
 30
0.0
  0
INSERT
  5
6CD
100
AcDbEntity
  8
EQUIPAMIENTO
100
AcDbBlockReference
  2
MUEBLE2
 10
54.28131
 20
26.010819
 30
0.0
  0
LINE
  5
6CE
100
AcDbEntity
  8
EQUIPAMIENTO
100
AcDbLine
 10
53.064879
 20
17.614998
 30
0.0
 11
53.464879
 21
17.488372
 31
0.0
  0
LINE
  5
6CF
100
AcDbEntity
  8
EQUIPAMIENTO
100
AcDbLine
 10
53.064879
 20
20.210819
 30
0.0
 11
53.464879
 21
20.210819
 31
0.0
  0
LINE
  5
6D0
100
AcDbEntity
  8
EQUIPAMIENTO
100
AcDbLine
 10
49.434479
 20
20.210819
 30
0.0
 11
49.434479
 21
18.764252
 31
0.0
  0
LINE
  5
6D1
100
AcDbEntity
  8
EQUIPAMIENTO
100
AcDbLine
 10
49.634479
 20
20.210819
 30
0.0
 11
49.634479
 21
18.700939
 31
0.0
  0
LINE
  5
6D2
100
AcDbEntity
  8
EQUIPAMIENTO
100
AcDbLine
 10
49.834479
 20
20.210819
 30
0.0
 11
49.834479
 21
18.637626
 31
0.0
  0
LINE
  5
6D3
100
AcDbEntity
  8
EQUIPAMIENTO
100
AcDbLine
 10
49.434479
 20
18.764252
 30
0.0
 11
49.834479
 21
18.637626
 31
0.0
  0
INSERT
  5
6D4
100
AcDbEntity
  8
ESTRUCTURA
100
AcDbBlockReference
  2
COLUMNA
 10
48.68131
 20
20.810819
 30
0.0
  0
LINE
  5
6D5
100
AcDbEntity
  8
EQUIPAMIENTO
100
AcDbLine
 10
49.434479
 20
20.210819
 30
0.0
 11
49.834479
 21
20.210819
 31
0.0
  0
LINE
  5
6D6
100
AcDbEntity
  8
EQUIPAMIENTO
100
AcDbLine
 10
51.249679
 20
20.210819
 30
0.0
 11
51.249679
 21
18.189625
 31
0.0
  0
LINE
  5
6D7
100
AcDbEntity
  8
EQUIPAMIENTO
100
AcDbLine
 10
51.449679
 20
20.210819
 30
0.0
 11
51.449679
 21
18.126312
 31
0.0
  0
LINE
  5
6D8
100
AcDbEntity
  8
EQUIPAMIENTO
100
AcDbLine
 10
51.649679
 20
20.210819
 30
0.0
 11
51.649679
 21
18.062999
 31
0.0
  0
LINE
  5
6D9
100
AcDbEntity
  8
EQUIPAMIENTO
100
AcDbLine
 10
53.064879
 20
20.210819
 30
0.0
 11
53.064879
 21
17.614998
 31
0.0
  0
LINE
  5
6DA
100
AcDbEntity
  8
EQUIPAMIENTO
100
AcDbLine
 10
53.264879
 20
20.210819
 30
0.0
 11
53.264879
 21
17.551685
 31
0.0
  0
LINE
  5
6DB
100
AcDbEntity
  8
EQUIPAMIENTO
100
AcDbLine
 10
51.249679
 20
18.189625
 30
0.0
 11
51.649679
 21
18.062999
 31
0.0
  0
LINE
  5
6DC
100
AcDbEntity
  8
EQUIPAMIENTO
100
AcDbLine
 10
51.249679
 20
20.210819
 30
0.0
 11
51.649679
 21
20.210819
 31
0.0
  0
LINE
  5
6DD
100
AcDbEntity
  8
CARPINTERIA
100
AcDbLine
 10
48.88131
 20
21.910819
 30
0.0
 11
50.88131
 21
21.910819
 31
0.0
  0
LINE
  5
6DE
100
AcDbEntity
  8
CARPINTERIA
100
AcDbLine
 10
48.88131
 20
21.960819
 30
0.0
 11
50.88131
 21
21.960819
 31
0.0
  0
LINE
  5
6DF
100
AcDbEntity
  8
MURO-01
100
AcDbLine
 10
48.88131
 20
21.810819
 30
0.0
 11
50.88131
 21
21.810819
 31
0.0
  0
LINE
  5
6E0
100
AcDbEntity
  8
MURO-01
100
AcDbLine
 10
48.88131
 20
22.010819
 30
0.0
 11
50.88131
 21
22.010819
 31
0.0
  0
LINE
  5
6E1
100
AcDbEntity
  8
EQUIPAMIENTO
100
AcDbLine
 10
49.18131
 20
22.410819
 30
0.0
 11
50.18131
 21
22.410819
 31
0.0
  0
LINE
  5
6E2
100
AcDbEntity
  8
CARPINTERIA
100
AcDbLine
 10
48.93131
 20
21.960819
 30
0.0
 11
48.93131
 21
21.910819
 31
0.0
  0
LINE
  5
6E3
100
AcDbEntity
  8
EQUIPAMIENTO
100
AcDbLine
 10
48.18131
 20
23.010819
 30
0.0
 11
48.18131
 21
22.010819
 31
0.0
  0
LINE
  5
6E4
100
AcDbEntity
  8
MURO-02
100
AcDbLine
 10
48.88131
 20
22.010819
 30
0.0
 11
48.88131
 21
21.810819
 31
0.0
  0
LINE
  5
6E5
100
AcDbEntity
  8
EQUIPAMIENTO
100
AcDbLine
 10
51.18131
 20
22.410819
 30
0.0
 11
52.18131
 21
22.410819
 31
0.0
  0
LINE
  5
6E6
100
AcDbEntity
  8
CARPINTERIA
100
AcDbLine
 10
50.83131
 20
21.960819
 30
0.0
 11
50.83131
 21
21.910819
 31
0.0
  0
LINE
  5
6E7
100
AcDbEntity
  8
MURO-02
100
AcDbLine
 10
50.88131
 20
22.010819
 30
0.0
 11
50.88131
 21
21.810819
 31
0.0
  0
LINE
  5
6E8
100
AcDbEntity
  8
EQUIPAMIENTO
100
AcDbLine
 10
53.464879
 20
20.210819
 30
0.0
 11
53.464879
 21
17.488372
 31
0.0
  0
INSERT
  5
6E9
100
AcDbEntity
  8
ESTRUCTURA
100
AcDbBlockReference
  2
COLUMNA
 10
54.28131
 20
20.810819
 30
0.0
  0
LINE
  5
6EA
100
AcDbEntity
  8
EQUIPAMIENTO
100
AcDbLine
 10
55.077059
 20
20.210819
 30
0.0
 11
55.477059
 21
20.210819
 31
0.0
  0
LINE
  5
6EB
100
AcDbEntity
  8
EQUIPAMIENTO
100
AcDbLine
 10
56.892283
 20
20.210819
 30
0.0
 11
57.292283
 21
20.210819
 31
0.0
  0
INSERT
  5
6EC
100
AcDbEntity
  8
ESTRUCTURA
100
AcDbBlockReference
  2
COLUMNA
 10
48.68131
 20
26.410819
 30
0.0
  0
INSERT
  5
6ED
100
AcDbEntity
  8
ESTRUCTURA
100
AcDbBlockReference
  2
COLUMNA
 10
48.68131
 20
32.010819
 30
0.0
  0
INSERT
  5
6EE
100
AcDbEntity
  8
EQUIPAMIENTO
100
AcDbBlockReference
  2
MUEBLE1
 10
54.28131
 20
31.610819
 30
0.0
  0
INSERT
  5
6EF
100
AcDbEntity
  8
ESTRUCTURA
100
AcDbBlockReference
  2
COLUMNA
 10
54.28131
 20
26.410819
 30
0.0
  0
INSERT
  5
6F0
100
AcDbEntity
  8
ESTRUCTURA
100
AcDbBlockReference
  2
COLUMNA
 10
54.28131
 20
32.010819
 30
0.0
  0
INSERT
  5
6F1
100
AcDbEntity
  8
ESTRUCTURA
100
AcDbBlockReference
  2
COLUMNA
 10
15.08131
 20
37.610819
 30
0.0
  0
INSERT
  5
6F2
100
AcDbEntity
  8
ESTRUCTURA
100
AcDbBlockReference
  2
COLUMNA
 10
9.48131
 20
37.610819
 30
0.0
  0
INSERT
  5
6F3
100
AcDbEntity
  8
ESTRUCTURA
100
AcDbBlockReference
  2
COLUMNA
 10
20.68131
 20
37.610819
 30
0.0
  0
INSERT
  5
6F4
100
AcDbEntity
  8
ESTRUCTURA
100
AcDbBlockReference
  2
COLUMNA
 10
20.68131
 20
43.210819
 30
0.0
  0
INSERT
  5
6F5
100
AcDbEntity
  8
ESTRUCTURA
100
AcDbBlockReference
  2
COLUMNA
 10
26.28131
 20
37.610819
 30
0.0
  0
INSERT
  5
6F6
100
AcDbEntity
  8
ESTRUCTURA
100
AcDbBlockReference
  2
COLUMNA
 10
31.88131
 20
37.610819
 30
0.0
  0
INSERT
  5
6F7
100
AcDbEntity
  8
ESTRUCTURA
100
AcDbBlockReference
  2
COLUMNA
 10
26.28131
 20
43.210819
 30
0.0
  0
INSERT
  5
6F8
100
AcDbEntity
  8
ESTRUCTURA
100
AcDbBlockReference
  2
COLUMNA
 10
31.88131
 20
43.210819
 30
0.0
  0
INSERT
  5
6F9
100
AcDbEntity
  8
ESTRUCTURA
100
AcDbBlockReference
  2
COLUMNA
 10
31.88131
 20
48.810819
 30
0.0
  0
LINE
  5
6FA
100
AcDbEntity
  8
EQUIPAMIENTO
100
AcDbLine
 10
47.68131
 20
37.210819
 30
0.0
 11
48.18131
 21
37.210819
 31
0.0
  0
LINE
  5
6FB
100
AcDbEntity
  8
EQUIPAMIENTO
100
AcDbLine
 10
47.68131
 20
38.010819
 30
0.0
 11
48.18131
 21
38.010819
 31
0.0
  0
LINE
  5
6FC
100
AcDbEntity
  8
EQUIPAMIENTO
100
AcDbLine
 10
47.68131
 20
40.010819
 30
0.0
 11
48.18131
 21
40.010819
 31
0.0
  0
LINE
  5
6FD
100
AcDbEntity
  8
ESCALERA
100
AcDbLine
 10
45.58131
 20
43.310819
 30
0.0
 11
47.08131
 21
42.210819
 31
0.0
  0
LINE
  5
6FE
100
AcDbEntity
  8
ESCALERA
100
AcDbLine
 10
43.23131
 20
43.460819
 30
0.0
 11
43.98131
 21
42.210819
 31
0.0
  0
LINE
  5
6FF
100
AcDbEntity
  8
MURO-02
100
AcDbLine
 10
47.28131
 20
44.410819
 30
0.0
 11
47.28131
 21
42.210819
 31
0.0
  0
LINE
  5
700
100
AcDbEntity
  8
ESCALERA
100
AcDbLine
 10
45.58131
 20
44.410819
 30
0.0
 11
45.58131
 21
42.210819
 31
0.0
  0
LINE
  5
701
100
AcDbEntity
  8
ESCALERA
100
AcDbLine
 10
45.83131
 20
44.410819
 30
0.0
 11
45.83131
 21
42.210819
 31
0.0
  0
LINE
  5
702
100
AcDbEntity
  8
ESCALERA
100
AcDbLine
 10
46.08131
 20
44.410819
 30
0.0
 11
46.08131
 21
42.210819
 31
0.0
  0
LINE
  5
703
100
AcDbEntity
  8
ESCALERA
100
AcDbLine
 10
46.33131
 20
44.410819
 30
0.0
 11
46.33131
 21
42.210819
 31
0.0
  0
LINE
  5
704
100
AcDbEntity
  8
ESCALERA
100
AcDbLine
 10
46.58131
 20
44.410819
 30
0.0
 11
46.58131
 21
42.210819
 31
0.0
  0
LINE
  5
705
100
AcDbEntity
  8
ESCALERA
100
AcDbLine
 10
46.83131
 20
44.410819
 30
0.0
 11
46.83131
 21
42.210819
 31
0.0
  0
LINE
  5
706
100
AcDbEntity
  8
ESCALERA
100
AcDbLine
 10
43.73131
 20
43.460819
 30
0.0
 11
43.73131
 21
42.627485
 31
0.0
  0
LINE
  5
707
100
AcDbEntity
  8
ESCALERA
100
AcDbLine
 10
43.98131
 20
43.460819
 30
0.0
 11
43.98131
 21
42.210819
 31
0.0
  0
LINE
  5
708
100
AcDbEntity
  8
ESCALERA
100
AcDbLine
 10
44.23131
 20
43.460819
 30
0.0
 11
44.23131
 21
42.210819
 31
0.0
  0
LINE
  5
709
100
AcDbEntity
  8
ESCALERA
100
AcDbLine
 10
44.48131
 20
43.460819
 30
0.0
 11
44.48131
 21
42.210819
 31
0.0
  0
INSERT
  5
70A
100
AcDbEntity
  8
ESTRUCTURA
100
AcDbBlockReference
  2
COLUMNA
 10
37.48131
 20
37.610819
 30
0.0
  0
INSERT
  5
70B
100
AcDbEntity
  8
ESTRUCTURA
100
AcDbBlockReference
  2
COLUMNA
 10
43.08131
 20
37.610819
 30
0.0
  0
LINE
  5
70C
100
AcDbEntity
  8
ESCALERA
100
AcDbLine
 10
43.814644
 20
42.488596
 30
0.0
 11
44.48131
 21
42.210819
 31
0.0
  0
LINE
  5
70D
100
AcDbEntity
  8
ESCALERA
100
AcDbLine
 10
43.98131
 20
42.260819
 30
0.0
 11
44.48131
 21
42.260819
 31
0.0
  0
LINE
  5
70E
100
AcDbEntity
  8
ESCALERA
100
AcDbLine
 10
43.98131
 20
42.210819
 30
0.0
 11
44.48131
 21
42.210819
 31
0.0
  0
LINE
  5
70F
100
AcDbEntity
  8
ESCALERA
100
AcDbLine
 10
45.58131
 20
42.260819
 30
0.0
 11
47.08131
 21
42.260819
 31
0.0
  0
LINE
  5
710
100
AcDbEntity
  8
ESCALERA
100
AcDbLine
 10
45.58131
 20
42.210819
 30
0.0
 11
47.08131
 21
42.210819
 31
0.0
  0
LINE
  5
711
100
AcDbEntity
  8
MURO-02
100
AcDbLine
 10
47.58131
 20
42.110819
 30
0.0
 11
47.28131
 21
42.110819
 31
0.0
  0
LINE
  5
712
100
AcDbEntity
  8
MURO-02
100
AcDbLine
 10
47.68131
 20
42.210819
 30
0.0
 11
47.28131
 21
42.210819
 31
0.0
  0
INSERT
  5
713
100
AcDbEntity
  8
ESTRUCTURA
100
AcDbBlockReference
  2
COLUMNA
 10
37.48131
 20
43.210819
 30
0.0
  0
INSERT
  5
714
100
AcDbEntity
  8
ESTRUCTURA
100
AcDbBlockReference
  2
COLUMNA
 10
37.48131
 20
48.810819
 30
0.0
  0
LINE
  5
715
100
AcDbEntity
  8
MURO-02
100
AcDbLine
 10
47.68131
 20
44.410819
 30
0.0
 11
47.68131
 21
49.610819
 31
0.0
  0
LINE
  5
716
100
AcDbEntity
  8
MURO-02
100
AcDbLine
 10
47.58131
 20
49.510819
 30
0.0
 11
47.58131
 21
44.510819
 31
0.0
  0
LINE
  5
717
100
AcDbEntity
  8
MURO-02
100
AcDbLine
 10
47.28131
 20
49.510819
 30
0.0
 11
47.28131
 21
44.510819
 31
0.0
  0
LINE
  5
718
100
AcDbEntity
  8
ESCALERA
100
AcDbLine
 10
43.48131
 20
43.044152
 30
0.0
 11
44.48131
 21
43.460819
 31
0.0
  0
LINE
  5
719
100
AcDbEntity
  8
ESCALERA
100
AcDbLine
 10
43.26131
 20
43.410819
 30
0.0
 11
44.48131
 21
43.410819
 31
0.0
  0
LINE
  5
71A
100
AcDbEntity
  8
ESCALERA
100
AcDbLine
 10
43.23131
 20
43.460819
 30
0.0
 11
44.48131
 21
43.460819
 31
0.0
  0
INSERT
  5
71B
100
AcDbEntity
  8
ESTRUCTURA
100
AcDbBlockReference
  2
COLUMNA
 10
43.08131
 20
43.210819
 30
0.0
  0
LINE
  5
71C
100
AcDbEntity
  8
ESCALERA
100
AcDbLine
 10
43.48131
 20
43.460819
 30
0.0
 11
43.48131
 21
43.044152
 31
0.0
  0
LINE
  5
71D
100
AcDbEntity
  8
ESCALERA
100
AcDbLine
 10
47.08131
 20
44.410819
 30
0.0
 11
45.58131
 21
43.310819
 31
0.0
  0
LINE
  5
71E
100
AcDbEntity
  8
ESCALERA
100
AcDbLine
 10
45.58131
 20
44.360819
 30
0.0
 11
47.08131
 21
44.360819
 31
0.0
  0
LINE
  5
71F
100
AcDbEntity
  8
ESCALERA
100
AcDbLine
 10
45.58131
 20
44.410819
 30
0.0
 11
47.08131
 21
44.410819
 31
0.0
  0
LINE
  5
720
100
AcDbEntity
  8
MURO-02
100
AcDbLine
 10
47.58131
 20
44.510819
 30
0.0
 11
47.28131
 21
44.510819
 31
0.0
  0
LINE
  5
721
100
AcDbEntity
  8
MURO-02
100
AcDbLine
 10
47.68131
 20
44.410819
 30
0.0
 11
47.28131
 21
44.410819
 31
0.0
  0
INSERT
  5
722
100
AcDbEntity
  8
ESTRUCTURA
100
AcDbBlockReference
  2
COLUMNA
 10
43.08131
 20
48.810819
 30
0.0
  0
LINE
  5
723
100
AcDbEntity
  8
ESCALERA
100
AcDbLine
 10
47.73131
 20
51.260819
 30
0.0
 11
47.73131
 21
49.610819
 31
0.0
  0
LINE
  5
724
100
AcDbEntity
  8
ESCALERA
100
AcDbLine
 10
47.68131
 20
51.260819
 30
0.0
 11
47.68131
 21
49.610819
 31
0.0
  0
LINE
  5
725
100
AcDbEntity
  8
MURO-02
100
AcDbLine
 10
47.08131
 20
49.610819
 30
0.0
 11
47.68131
 21
49.610819
 31
0.0
  0
LINE
  5
726
100
AcDbEntity
  8
MURO-02
100
AcDbLine
 10
47.58131
 20
49.510819
 30
0.0
 11
47.28131
 21
49.510819
 31
0.0
  0
LINE
  5
727
100
AcDbEntity
  8
EQUIPAMIENTO
100
AcDbLine
 10
52.18131
 20
38.010819
 30
0.0
 11
52.18131
 21
40.010819
 31
0.0
  0
LINE
  5
728
100
AcDbEntity
  8
EQUIPAMIENTO
100
AcDbLine
 10
51.18131
 20
38.010819
 30
0.0
 11
51.18131
 21
40.010819
 31
0.0
  0
LINE
  5
729
100
AcDbEntity
  8
EQUIPAMIENTO
100
AcDbLine
 10
50.18131
 20
38.010819
 30
0.0
 11
50.18131
 21
40.010819
 31
0.0
  0
LINE
  5
72A
100
AcDbEntity
  8
EQUIPAMIENTO
100
AcDbLine
 10
49.18131
 20
38.010819
 30
0.0
 11
49.18131
 21
40.010819
 31
0.0
  0
LINE
  5
72B
100
AcDbEntity
  8
EQUIPAMIENTO
100
AcDbLine
 10
48.18131
 20
38.010819
 30
0.0
 11
48.18131
 21
40.010819
 31
0.0
  0
LINE
  5
72C
100
AcDbEntity
  8
EQUIPAMIENTO
100
AcDbLine
 10
49.18131
 20
38.010819
 30
0.0
 11
50.18131
 21
38.010819
 31
0.0
  0
LINE
  5
72D
100
AcDbEntity
  8
EQUIPAMIENTO
100
AcDbLine
 10
49.18131
 20
37.210819
 30
0.0
 11
50.18131
 21
37.210819
 31
0.0
  0
INSERT
  5
72E
100
AcDbEntity
  8
ESTRUCTURA
100
AcDbBlockReference
  2
COLUMNA
 10
48.68131
 20
37.610819
 30
0.0
  0
LINE
  5
72F
100
AcDbEntity
  8
EQUIPAMIENTO
100
AcDbLine
 10
51.18131
 20
38.010819
 30
0.0
 11
52.18131
 21
38.010819
 31
0.0
  0
LINE
  5
730
100
AcDbEntity
  8
EQUIPAMIENTO
100
AcDbLine
 10
51.18131
 20
37.210819
 30
0.0
 11
52.18131
 21
37.210819
 31
0.0
  0
LINE
  5
731
100
AcDbEntity
  8
EQUIPAMIENTO
100
AcDbLine
 10
49.18131
 20
40.010819
 30
0.0
 11
50.18131
 21
40.010819
 31
0.0
  0
LINE
  5
732
100
AcDbEntity
  8
EQUIPAMIENTO
100
AcDbLine
 10
49.68131
 20
42.210819
 30
0.0
 11
49.68131
 21
41.810819
 31
0.0
  0
LINE
  5
733
100
AcDbEntity
  8
EQUIPAMIENTO
100
AcDbLine
 10
51.18131
 20
40.010819
 30
0.0
 11
52.18131
 21
40.010819
 31
0.0
  0
LINE
  5
734
100
AcDbEntity
  8
EQUIPAMIENTO
100
AcDbLine
 10
51.68131
 20
42.210819
 30
0.0
 11
51.68131
 21
41.810819
 31
0.0
  0
LINE
  5
735
100
AcDbEntity
  8
EQUIPAMIENTO
100
AcDbLine
 10
57.88131
 20
38.010819
 30
0.0
 11
57.88131
 21
40.010819
 31
0.0
  0
LINE
  5
736
100
AcDbEntity
  8
EQUIPAMIENTO
100
AcDbLine
 10
56.28131
 20
38.010819
 30
0.0
 11
56.28131
 21
40.010819
 31
0.0
  0
INSERT
  5
737
100
AcDbEntity
  8
EQUIPAMIENTO
100
AcDbBlockReference
  2
MUEBLE5
 10
54.28131
 20
40.010819
 30
0.0
  0
INSERT
  5
738
100
AcDbEntity
  8
ESTRUCTURA
100
AcDbBlockReference
  2
COLUMNA
 10
54.28131
 20
37.610819
 30
0.0
  0
LINE
  5
739
100
AcDbEntity
  8
EQUIPAMIENTO
100
AcDbLine
 10
56.28131
 20
38.010819
 30
0.0
 11
57.88131
 21
38.010819
 31
0.0
  0
LINE
  5
73A
100
AcDbEntity
  8
EQUIPAMIENTO
100
AcDbLine
 10
53.68131
 20
42.210819
 30
0.0
 11
53.68131
 21
41.810819
 31
0.0
  0
LINE
  5
73B
100
AcDbEntity
  8
EQUIPAMIENTO
100
AcDbLine
 10
55.68131
 20
42.210819
 30
0.0
 11
55.68131
 21
41.810819
 31
0.0
  0
LINE
  5
73C
100
AcDbEntity
  8
EQUIPAMIENTO
100
AcDbLine
 10
56.28131
 20
40.010819
 30
0.0
 11
57.88131
 21
40.010819
 31
0.0
  0
LINE
  5
73D
100
AcDbEntity
  8
EQUIPAMIENTO
100
AcDbLine
 10
57.68131
 20
42.210819
 30
0.0
 11
57.68131
 21
41.810819
 31
0.0
  0
LINE
  5
73E
100
AcDbEntity
  8
MURO-02
100
AcDbLine
 10
52.28131
 20
49.610819
 30
0.0
 11
52.28131
 21
44.410819
 31
0.0
  0
LINE
  5
73F
100
AcDbEntity
  8
MURO-02
100
AcDbLine
 10
52.18131
 20
49.610819
 30
0.0
 11
52.18131
 21
44.410819
 31
0.0
  0
LINE
  5
740
100
AcDbEntity
  8
MURO-02
100
AcDbLine
 10
48.58131
 20
44.310819
 30
0.0
 11
53.28131
 21
44.310819
 31
0.0
  0
LINE
  5
741
100
AcDbEntity
  8
MURO-02
100
AcDbLine
 10
48.58131
 20
44.410819
 30
0.0
 11
52.18131
 21
44.410819
 31
0.0
  0
LINE
  5
742
100
AcDbEntity
  8
MURO-02
100
AcDbLine
 10
48.58131
 20
44.410819
 30
0.0
 11
48.58131
 21
44.310819
 31
0.0
  0
INSERT
  5
743
100
AcDbEntity
  8
ESTRUCTURA
100
AcDbBlockReference
  2
COLUMNA
 10
48.68131
 20
43.210819
 30
0.0
  0
LINE
  5
744
100
AcDbEntity
  8
MURO-02
100
AcDbLine
 10
52.28131
 20
44.410819
 30
0.0
 11
53.28131
 21
44.410819
 31
0.0
  0
LINE
  5
745
100
AcDbEntity
  8
MURO-02
100
AcDbLine
 10
53.28131
 20
44.310819
 30
0.0
 11
53.28131
 21
44.410819
 31
0.0
  0
INSERT
  5
746
100
AcDbEntity
  8
ESTRUCTURA
100
AcDbBlockReference
  2
COLUMNA
 10
48.68131
 20
48.810819
 30
0.0
  0
LINE
  5
747
100
AcDbEntity
  8
MURO-02
100
AcDbLine
 10
52.18131
 20
49.610819
 30
0.0
 11
52.28131
 21
49.610819
 31
0.0
  0
LINE
  5
748
100
AcDbEntity
  8
MURO-02
100
AcDbLine
 10
56.93131
 20
44.410819
 30
0.0
 11
56.93131
 21
49.610819
 31
0.0
  0
LINE
  5
749
100
AcDbEntity
  8
MURO-02
100
AcDbLine
 10
57.03131
 20
44.410819
 30
0.0
 11
57.03131
 21
49.610819
 31
0.0
  0
LINE
  5
74A
100
AcDbEntity
  8
MURO-02
100
AcDbLine
 10
54.28131
 20
44.410819
 30
0.0
 11
56.93131
 21
44.410819
 31
0.0
  0
LINE
  5
74B
100
AcDbEntity
  8
MURO-02
100
AcDbLine
 10
54.28131
 20
44.310819
 30
0.0
 11
54.28131
 21
44.410819
 31
0.0
  0
INSERT
  5
74C
100
AcDbEntity
  8
ESTRUCTURA
100
AcDbBlockReference
  2
COLUMNA
 10
54.28131
 20
43.210819
 30
0.0
  0
INSERT
  5
74D
100
AcDbEntity
  8
ESTRUCTURA
100
AcDbBlockReference
  2
COLUMNA
 10
54.28131
 20
48.810819
 30
0.0
  0
LINE
  5
74E
100
AcDbEntity
  8
MURO-02
100
AcDbLine
 10
57.03131
 20
49.610819
 30
0.0
 11
56.93131
 21
49.610819
 31
0.0
  0
INSERT
  5
74F
100
AcDbEntity
  8
ESTRUCTURA
100
AcDbBlockReference
  2
COLUMNA
 10
43.08131
 20
54.410819
 30
0.0
  0
INSERT
  5
750
100
AcDbEntity
  8
ESTRUCTURA
100
AcDbBlockReference
  2
COLUMNA
 10
54.28131
 20
60.010819
 30
0.0
  0
INSERT
  5
751
100
AcDbEntity
  8
ESTRUCTURA
100
AcDbBlockReference
  2
COLUMNA
 10
48.68131
 20
54.410819
 30
0.0
  0
INSERT
  5
752
100
AcDbEntity
  8
ESTRUCTURA
100
AcDbBlockReference
  2
COLUMNA
 10
54.28131
 20
54.410819
 30
0.0
  0
LINE
  5
753
100
AcDbEntity
  8
PROYECCION
100
AcDbLine
 10
87.52854
 20
42.791656
 30
0.0
 11
87.52854
 21
32.910819
 31
0.0
  0
LINE
  5
754
100
AcDbEntity
  8
PROYECCION
100
AcDbLine
 10
89.98131
 20
42.710819
 30
0.0
 11
89.98131
 21
29.910819
 31
0.0
  0
LINE
  5
755
100
AcDbEntity
  8
PROYECCION
100
AcDbLine
 10
99.28131
 20
82.734425
 30
0.0
 11
99.28131
 21
0.0
 31
0.0
  0
LINE
  5
757
100
AcDbEntity
  8
CARPINTERIA
100
AcDbLine
 10
93.08131
 20
38.391907
 30
0.0
 11
93.08131
 21
33.260819
 31
0.0
  0
LINE
  5
758
100
AcDbEntity
  8
CARPINTERIA
100
AcDbLine
 10
95.28131
 20
37.906182
 30
0.0
 11
95.28131
 21
33.260819
 31
0.0
  0
LINE
  5
759
100
AcDbEntity
  8
CARPINTERIA
100
AcDbLine
 10
93.03131
 20
38.454151
 30
0.0
 11
93.03131
 21
33.210819
 31
0.0
  0
LINE
  5
75A
100
AcDbEntity
  8
CARPINTERIA
100
AcDbLine
 10
95.33131
 20
37.946347
 30
0.0
 11
95.33131
 21
33.210819
 31
0.0
  0
LINE
  5
75B
100
AcDbEntity
  8
SOLADO
100
AcDbLine
 10
109.378014
 20
80.410819
 30
0.0
 11
102.817574
 21
0.810819
 31
0.0
  0
LINE
  5
75C
100
AcDbEntity
  8
SOLADO
100
AcDbLine
 10
105.66484
 20
35.357639
 30
0.0
 11
105.487904
 21
33.210819
 31
0.0
  0
LINE
  5
75D
100
AcDbEntity
  8
SOLADO
100
AcDbLine
 10
80.215235
 20
37.310819
 30
0.0
 11
81.20629
 21
32.910819
 31
0.0
  0
LINE
  5
75E
100
AcDbEntity
  8
SOLADO
100
AcDbLine
 10
87.301309
 20
39.719246
 30
0.0
 11
87.301309
 21
32.910819
 31
0.0
  0
INSERT
  5
75F
100
AcDbEntity
  8
EQUIPAMIENTO
100
AcDbBlockReference
  2
MUEBLE4
 10
68.48131
 20
37.210819
 30
0.0
  0
LINE
  5
760
100
AcDbEntity
  8
EQUIPAMIENTO
100
AcDbLine
 10
66.28131
 20
37.210819
 30
0.0
 11
66.28131
 21
32.410819
 31
0.0
  0
INSERT
  5
761
100
AcDbEntity
  8
EQUIPAMIENTO
100
AcDbBlockReference
  2
MUEBLE3
 10
62.68131
 20
37.210819
 30
0.0
  0
LINE
  5
762
100
AcDbEntity
  8
EQUIPAMIENTO
100
AcDbLine
 10
62.68131
 20
37.210819
 30
0.0
 11
62.68131
 21
32.410819
 31
0.0
  0
INSERT
  5
763
100
AcDbEntity
  8
EQUIPAMIENTO
100
AcDbBlockReference
  2
MUEBLE1
 10
65.48131
 20
37.210819
 30
0.0
  0
INSERT
  5
764
100
AcDbEntity
  8
EQUIPAMIENTO
100
AcDbBlockReference
  2
MUEBLE1
 10
59.88131
 20
37.210819
 30
0.0
  0
LINE
  5
765
100
AcDbEntity
  8
MURO-02
100
AcDbLine
 10
78.78131
 20
35.727485
 30
0.0
 11
78.78131
 21
34.394152
 31
0.0
  0
LINE
  5
766
100
AcDbEntity
  8
MURO-02
100
AcDbLine
 10
78.88131
 20
37.310819
 30
0.0
 11
78.88131
 21
32.910819
 31
0.0
  0
LINE
  5
76E
100
AcDbEntity
  8
SOLADO
100
AcDbLine
 10
89.98131
 20
21.810819
 30
0.0
 11
89.98131
 21
49.610819
 31
0.0
  0
LINE
  5
773
100
AcDbEntity
  8
SOLADO
100
AcDbLine
 10
89.98131
 20
21.810819
 30
0.0
 11
89.98131
 21
49.610819
 31
0.0
  0
LINE
  5
782
100
AcDbEntity
  8
SOLADO
100
AcDbLine
 10
89.98131
 20
21.810819
 30
0.0
 11
89.98131
 21
49.610819
 31
0.0
  0
LINE
  5
787
100
AcDbEntity
  8
SOLADO
100
AcDbLine
 10
89.98131
 20
21.810819
 30
0.0
 11
89.98131
 21
49.610819
 31
0.0
  0
LINE
  5
796
100
AcDbEntity
  8
SOLADO
100
AcDbLine
 10
89.98131
 20
21.810819
 30
0.0
 11
89.98131
 21
49.610819
 31
0.0
  0
LINE
  5
79B
100
AcDbEntity
  8
SOLADO
100
AcDbLine
 10
89.98131
 20
21.810819
 30
0.0
 11
89.98131
 21
49.610819
 31
0.0
  0
LINE
  5
7AA
100
AcDbEntity
  8
SOLADO
100
AcDbLine
 10
89.98131
 20
21.810819
 30
0.0
 11
89.98131
 21
49.610819
 31
0.0
  0
LINE
  5
7AD
100
AcDbEntity
  8
MURO-02
100
AcDbLine
 10
71.28131
 20
42.110819
 30
0.0
 11
71.28131
 21
22.410819
 31
0.0
  0
LINE
  5
7AE
100
AcDbEntity
  8
MURO-02
100
AcDbLine
 10
71.08131
 20
42.110819
 30
0.0
 11
71.08131
 21
27.410819
 31
0.0
  0
LINE
  5
7B1
100
AcDbEntity
  8
SOLADO
100
AcDbLine
 10
89.98131
 20
21.810819
 30
0.0
 11
89.98131
 21
49.610819
 31
0.0
  0
LINE
  5
7B9
100
AcDbEntity
  8
SOLADO
100
AcDbLine
 10
102.818207
 20
0.818496
 30
0.0
 11
94.58131
 21
3.426
 31
0.0
  0
LINE
  5
7BA
100
AcDbEntity
  8
SOLADO
100
AcDbLine
 10
98.88131
 20
32.210819
 30
0.0
 11
105.204808
 21
32.210819
 31
0.0
  0
LINE
  5
7BB
100
AcDbEntity
  8
SOLADO
100
AcDbLine
 10
105.287226
 20
33.210819
 30
0.0
 11
102.622631
 21
0.880408
 31
0.0
  0
LINE
  5
7BC
100
AcDbEntity
  8
SOLADO
100
AcDbLine
 10
95.33131
 20
33.210819
 30
0.0
 11
105.487904
 21
33.210819
 31
0.0
  0
LINE
  5
7DD
100
AcDbEntity
  8
ESCALERA
100
AcDbLine
 10
81.18131
 20
17.510819
 30
0.0
 11
77.93131
 21
17.010819
 31
0.0
  0
LINE
  5
7DE
100
AcDbEntity
  8
ESCALERA
100
AcDbLine
 10
77.93131
 20
18.010819
 30
0.0
 11
81.18131
 21
17.510819
 31
0.0
  0
LINE
  5
7DF
100
AcDbEntity
  8
ESCALERA
100
AcDbLine
 10
77.93131
 20
17.060819
 30
0.0
 11
81.18131
 21
17.060819
 31
0.0
  0
LINE
  5
7E0
100
AcDbEntity
  8
ESCALERA
100
AcDbLine
 10
77.93131
 20
17.960819
 30
0.0
 11
81.18131
 21
17.960819
 31
0.0
  0
LINE
  5
7E1
100
AcDbEntity
  8
EQUIPAMIENTO
100
AcDbLine
 10
66.93131
 20
13.010819
 30
0.0
 11
85.28131
 21
13.010819
 31
0.0
  0
LINE
  5
7E2
100
AcDbEntity
  8
EQUIPAMIENTO
100
AcDbLine
 10
94.18131
 20
4.024636
 30
0.0
 11
65.794681
 21
13.010819
 31
0.0
  0
LINE
  5
7E3
100
AcDbEntity
  8
ESCALERA
100
AcDbLine
 10
77.93131
 20
18.010819
 30
0.0
 11
81.18131
 21
18.010819
 31
0.0
  0
LINE
  5
7E4
100
AcDbEntity
  8
EQUIPAMIENTO
100
AcDbLine
 10
76.93131
 20
20.810819
 30
0.0
 11
81.18131
 21
20.810819
 31
0.0
  0
LINE
  5
7E5
100
AcDbEntity
  8
EQUIPAMIENTO
100
AcDbLine
 10
76.93131
 20
17.010819
 30
0.0
 11
83.73131
 21
17.010819
 31
0.0
  0
LINE
  5
7E6
100
AcDbEntity
  8
MURO-02
100
AcDbLine
 10
75.08131
 20
32.710819
 30
0.0
 11
84.08131
 21
32.710819
 31
0.0
  0
LINE
  5
7E7
100
AcDbEntity
  8
MURO-02
100
AcDbLine
 10
71.28131
 20
22.410819
 30
0.0
 11
84.08131
 21
22.410819
 31
0.0
  0
LINE
  5
7E8
100
AcDbEntity
  8
MURO-02
100
AcDbLine
 10
71.28131
 20
22.310819
 30
0.0
 11
89.78131
 21
22.310819
 31
0.0
  0
LINE
  5
7E9
100
AcDbEntity
  8
MURO-02
100
AcDbLine
 10
81.43131
 20
25.910819
 30
0.0
 11
80.63131
 21
25.910819
 31
0.0
  0
LINE
  5
7EA
100
AcDbEntity
  8
MURO-02
100
AcDbLine
 10
84.08131
 20
25.810819
 30
0.0
 11
80.63131
 21
25.810819
 31
0.0
  0
LINE
  5
7EB
100
AcDbEntity
  8
MURO-02
100
AcDbLine
 10
78.88131
 20
22.010819
 30
0.0
 11
84.08131
 21
22.010819
 31
0.0
  0
LINE
  5
7EC
100
AcDbEntity
  8
MURO-02
100
AcDbLine
 10
84.08131
 20
29.910819
 30
0.0
 11
75.08131
 21
29.910819
 31
0.0
  0
LINE
  5
7ED
100
AcDbEntity
  8
MURO-02
100
AcDbLine
 10
84.08131
 20
29.810819
 30
0.0
 11
79.63131
 21
29.810819
 31
0.0
  0
LINE
  5
7EE
100
AcDbEntity
  8
MURO-02
100
AcDbLine
 10
89.98131
 20
32.910819
 30
0.0
 11
78.88131
 21
32.910819
 31
0.0
  0
LINE
  5
7EF
100
AcDbEntity
  8
SOLADO
100
AcDbLine
 10
71.08131
 20
22.110819
 30
0.0
 11
89.98131
 21
22.110819
 31
0.0
  0
LINE
  5
7F0
100
AcDbEntity
  8
SOLADO
100
AcDbLine
 10
71.08131
 20
22.110819
 30
0.0
 11
89.98131
 21
22.110819
 31
0.0
  0
LINE
  5
7F1
100
AcDbEntity
  8
SOLADO
100
AcDbLine
 10
71.08131
 20
22.110819
 30
0.0
 11
89.98131
 21
22.110819
 31
0.0
  0
LINE
  5
7F2
100
AcDbEntity
  8
SOLADO
100
AcDbLine
 10
71.08131
 20
22.110819
 30
0.0
 11
89.98131
 21
22.110819
 31
0.0
  0
LINE
  5
7F3
100
AcDbEntity
  8
SOLADO
100
AcDbLine
 10
71.08131
 20
22.110819
 30
0.0
 11
89.98131
 21
22.110819
 31
0.0
  0
LINE
  5
7F4
100
AcDbEntity
  8
SOLADO
100
AcDbLine
 10
71.08131
 20
22.110819
 30
0.0
 11
89.98131
 21
22.110819
 31
0.0
  0
LINE
  5
7F5
100
AcDbEntity
  8
SOLADO
100
AcDbLine
 10
71.08131
 20
22.110819
 30
0.0
 11
89.98131
 21
22.110819
 31
0.0
  0
LINE
  5
7F6
100
AcDbEntity
  8
SOLADO
100
AcDbLine
 10
71.08131
 20
22.110819
 30
0.0
 11
89.98131
 21
22.110819
 31
0.0
  0
LINE
  5
7F7
100
AcDbEntity
  8
EQUIPAMIENTO
100
AcDbLine
 10
74.316353
 20
20.210819
 30
0.0
 11
74.316353
 21
15.710819
 31
0.0
  0
LINE
  5
7F8
100
AcDbEntity
  8
EQUIPAMIENTO
100
AcDbLine
 10
74.116353
 20
20.210819
 30
0.0
 11
74.116353
 21
15.710819
 31
0.0
  0
LINE
  5
7F9
100
AcDbEntity
  8
EQUIPAMIENTO
100
AcDbLine
 10
73.916353
 20
20.210819
 30
0.0
 11
73.916353
 21
15.710819
 31
0.0
  0
LINE
  5
7FA
100
AcDbEntity
  8
EQUIPAMIENTO
100
AcDbLine
 10
72.304153
 20
20.210819
 30
0.0
 11
72.304153
 21
15.710819
 31
0.0
  0
LINE
  5
7FB
100
AcDbEntity
  8
EQUIPAMIENTO
100
AcDbLine
 10
72.104153
 20
20.210819
 30
0.0
 11
72.104153
 21
15.710819
 31
0.0
  0
LINE
  5
7FC
100
AcDbEntity
  8
EQUIPAMIENTO
100
AcDbLine
 10
71.904153
 20
20.210819
 30
0.0
 11
71.904153
 21
15.710819
 31
0.0
  0
LINE
  5
7FD
100
AcDbEntity
  8
EQUIPAMIENTO
100
AcDbLine
 10
70.291953
 20
20.210819
 30
0.0
 11
70.291953
 21
15.710819
 31
0.0
  0
LINE
  5
7FE
100
AcDbEntity
  8
EQUIPAMIENTO
100
AcDbLine
 10
70.091953
 20
20.210819
 30
0.0
 11
70.091953
 21
15.710819
 31
0.0
  0
LINE
  5
7FF
100
AcDbEntity
  8
EQUIPAMIENTO
100
AcDbLine
 10
69.891953
 20
20.210819
 30
0.0
 11
69.891953
 21
15.710819
 31
0.0
  0
LINE
  5
800
100
AcDbEntity
  8
EQUIPAMIENTO
100
AcDbLine
 10
68.476753
 20
20.210819
 30
0.0
 11
68.476753
 21
15.710819
 31
0.0
  0
LINE
  5
801
100
AcDbEntity
  8
EQUIPAMIENTO
100
AcDbLine
 10
68.276753
 20
20.210819
 30
0.0
 11
68.276753
 21
15.710819
 31
0.0
  0
LINE
  5
802
100
AcDbEntity
  8
EQUIPAMIENTO
100
AcDbLine
 10
68.076753
 20
20.210819
 30
0.0
 11
68.076753
 21
15.710819
 31
0.0
  0
LINE
  5
803
100
AcDbEntity
  8
EQUIPAMIENTO
100
AcDbLine
 10
66.661553
 20
20.210819
 30
0.0
 11
66.661553
 21
15.710819
 31
0.0
  0
LINE
  5
804
100
AcDbEntity
  8
EQUIPAMIENTO
100
AcDbLine
 10
66.461553
 20
20.210819
 30
0.0
 11
66.461553
 21
15.710819
 31
0.0
  0
LINE
  5
805
100
AcDbEntity
  8
EQUIPAMIENTO
100
AcDbLine
 10
66.261553
 20
20.210819
 30
0.0
 11
66.261553
 21
15.710819
 31
0.0
  0
LINE
  5
806
100
AcDbEntity
  8
EQUIPAMIENTO
100
AcDbLine
 10
64.299754
 20
20.210819
 30
0.0
 11
64.299754
 21
15.710819
 31
0.0
  0
LINE
  5
807
100
AcDbEntity
  8
EQUIPAMIENTO
100
AcDbLine
 10
64.499754
 20
20.210819
 30
0.0
 11
64.499754
 21
15.710819
 31
0.0
  0
LINE
  5
808
100
AcDbEntity
  8
EQUIPAMIENTO
100
AcDbLine
 10
64.699754
 20
20.210819
 30
0.0
 11
64.699754
 21
15.710819
 31
0.0
  0
LINE
  5
809
100
AcDbEntity
  8
EQUIPAMIENTO
100
AcDbLine
 10
61.069306
 20
20.210819
 30
0.0
 11
61.069306
 21
15.710819
 31
0.0
  0
LINE
  5
80A
100
AcDbEntity
  8
EQUIPAMIENTO
100
AcDbLine
 10
60.869306
 20
20.210819
 30
0.0
 11
60.869306
 21
15.710819
 31
0.0
  0
LINE
  5
80B
100
AcDbEntity
  8
EQUIPAMIENTO
100
AcDbLine
 10
62.88453
 20
20.210819
 30
0.0
 11
62.88453
 21
15.710819
 31
0.0
  0
LINE
  5
80C
100
AcDbEntity
  8
EQUIPAMIENTO
100
AcDbLine
 10
62.48453
 20
20.210819
 30
0.0
 11
62.48453
 21
15.710819
 31
0.0
  0
LINE
  5
80D
100
AcDbEntity
  8
EQUIPAMIENTO
100
AcDbLine
 10
62.68453
 20
20.210819
 30
0.0
 11
62.68453
 21
15.710819
 31
0.0
  0
LINE
  5
80E
100
AcDbEntity
  8
EQUIPAMIENTO
100
AcDbLine
 10
60.669306
 20
20.210819
 30
0.0
 11
60.669306
 21
15.710819
 31
0.0
  0
LINE
  5
80F
100
AcDbEntity
  8
EQUIPAMIENTO
100
AcDbLine
 10
59.057127
 20
20.210819
 30
0.0
 11
59.057127
 21
15.718069
 31
0.0
  0
LINE
  5
810
100
AcDbEntity
  8
ESCALERA
100
AcDbLine
 10
77.93131
 20
18.010819
 30
0.0
 11
77.93131
 21
17.010819
 31
0.0
  0
LINE
  5
811
100
AcDbEntity
  8
ESCALERA
100
AcDbLine
 10
78.18131
 20
18.010819
 30
0.0
 11
78.18131
 21
17.010819
 31
0.0
  0
LINE
  5
812
100
AcDbEntity
  8
ESCALERA
100
AcDbLine
 10
78.43131
 20
18.010819
 30
0.0
 11
78.43131
 21
17.010819
 31
0.0
  0
LINE
  5
813
100
AcDbEntity
  8
ESCALERA
100
AcDbLine
 10
78.68131
 20
18.010819
 30
0.0
 11
78.68131
 21
17.010819
 31
0.0
  0
LINE
  5
814
100
AcDbEntity
  8
ESCALERA
100
AcDbLine
 10
78.93131
 20
18.010819
 30
0.0
 11
78.93131
 21
17.010819
 31
0.0
  0
LINE
  5
815
100
AcDbEntity
  8
ESCALERA
100
AcDbLine
 10
79.18131
 20
18.010819
 30
0.0
 11
79.18131
 21
17.010819
 31
0.0
  0
LINE
  5
816
100
AcDbEntity
  8
ESCALERA
100
AcDbLine
 10
79.43131
 20
18.010819
 30
0.0
 11
79.43131
 21
17.010819
 31
0.0
  0
LINE
  5
817
100
AcDbEntity
  8
ESCALERA
100
AcDbLine
 10
79.68131
 20
18.010819
 30
0.0
 11
79.68131
 21
17.010819
 31
0.0
  0
LINE
  5
818
100
AcDbEntity
  8
ESCALERA
100
AcDbLine
 10
79.93131
 20
18.010819
 30
0.0
 11
79.93131
 21
17.010819
 31
0.0
  0
LINE
  5
819
100
AcDbEntity
  8
ESCALERA
100
AcDbLine
 10
80.18131
 20
18.010819
 30
0.0
 11
80.18131
 21
17.010819
 31
0.0
  0
LINE
  5
81A
100
AcDbEntity
  8
ESCALERA
100
AcDbLine
 10
80.43131
 20
18.010819
 30
0.0
 11
80.43131
 21
17.010819
 31
0.0
  0
LINE
  5
81B
100
AcDbEntity
  8
ESCALERA
100
AcDbLine
 10
80.68131
 20
18.010819
 30
0.0
 11
80.68131
 21
17.010819
 31
0.0
  0
LINE
  5
81C
100
AcDbEntity
  8
EQUIPAMIENTO
100
AcDbLine
 10
76.93131
 20
20.810819
 30
0.0
 11
76.93131
 21
17.010819
 31
0.0
  0
LINE
  5
81D
100
AcDbEntity
  8
EQUIPAMIENTO
100
AcDbLine
 10
66.93131
 20
13.660819
 30
0.0
 11
79.93131
 21
13.660819
 31
0.0
  0
LINE
  5
81E
100
AcDbEntity
  8
EQUIPAMIENTO
100
AcDbLine
 10
66.93131
 20
13.510819
 30
0.0
 11
79.93131
 21
13.510819
 31
0.0
  0
LINE
  5
81F
100
AcDbEntity
  8
EQUIPAMIENTO
100
AcDbLine
 10
64.299754
 20
15.710819
 30
0.0
 11
64.699754
 21
15.710819
 31
0.0
  0
INSERT
  5
820
100
AcDbEntity
  8
ESTRUCTURA
100
AcDbBlockReference
  2
COLUMNA
 10
59.88131
 20
15.210819
 30
0.0
  0
LINE
  5
821
100
AcDbEntity
  8
EQUIPAMIENTO
100
AcDbLine
 10
60.669306
 20
15.710819
 30
0.0
 11
61.069306
 21
15.710819
 31
0.0
  0
LINE
  5
822
100
AcDbEntity
  8
EQUIPAMIENTO
100
AcDbLine
 10
62.48453
 20
15.710819
 30
0.0
 11
62.88453
 21
15.710819
 31
0.0
  0
INSERT
  5
823
100
AcDbEntity
  8
ESTRUCTURA
100
AcDbBlockReference
  2
COLUMNA
 10
65.48131
 20
15.210819
 30
0.0
  0
LINE
  5
824
100
AcDbEntity
  8
EQUIPAMIENTO
100
AcDbLine
 10
65.794681
 20
13.010819
 30
0.0
 11
66.93131
 21
13.010819
 31
0.0
  0
LINE
  5
825
100
AcDbEntity
  8
EQUIPAMIENTO
100
AcDbLine
 10
66.93131
 20
13.510819
 30
0.0
 11
66.93131
 21
13.010819
 31
0.0
  0
LINE
  5
826
100
AcDbEntity
  8
EQUIPAMIENTO
100
AcDbLine
 10
66.261553
 20
15.710819
 30
0.0
 11
66.661553
 21
15.710819
 31
0.0
  0
LINE
  5
827
100
AcDbEntity
  8
EQUIPAMIENTO
100
AcDbLine
 10
68.076753
 20
15.710819
 30
0.0
 11
68.476753
 21
15.710819
 31
0.0
  0
LINE
  5
828
100
AcDbEntity
  8
EQUIPAMIENTO
100
AcDbLine
 10
70.93131
 20
12.310819
 30
0.0
 11
79.93131
 21
12.310819
 31
0.0
  0
LINE
  5
829
100
AcDbEntity
  8
EQUIPAMIENTO
100
AcDbLine
 10
70.93131
 20
13.010819
 30
0.0
 11
70.93131
 21
12.310819
 31
0.0
  0
INSERT
  5
82A
100
AcDbEntity
  8
ESTRUCTURA
100
AcDbBlockReference
  2
COLUMNA
 10
71.08131
 20
9.610819
 30
0.0
  0
INSERT
  5
82B
100
AcDbEntity
  8
ESTRUCTURA
100
AcDbBlockReference
  2
COLUMNA
 10
71.08131
 20
15.210819
 30
0.0
  0
LINE
  5
82C
100
AcDbEntity
  8
EQUIPAMIENTO
100
AcDbLine
 10
69.891953
 20
15.710819
 30
0.0
 11
70.291953
 21
15.710819
 31
0.0
  0
LINE
  5
82D
100
AcDbEntity
  8
EQUIPAMIENTO
100
AcDbLine
 10
71.904153
 20
15.710819
 30
0.0
 11
72.304153
 21
15.710819
 31
0.0
  0
LINE
  5
82E
100
AcDbEntity
  8
EQUIPAMIENTO
100
AcDbLine
 10
73.916353
 20
15.710819
 30
0.0
 11
74.316353
 21
15.710819
 31
0.0
  0
LINE
  5
82F
100
AcDbEntity
  8
EQUIPAMIENTO
100
AcDbLine
 10
79.93131
 20
13.510819
 30
0.0
 11
79.93131
 21
12.310819
 31
0.0
  0
INSERT
  5
830
100
AcDbEntity
  8
ESTRUCTURA
100
AcDbBlockReference
  2
COLUMNA
 10
76.68131
 20
15.210819
 30
0.0
  0
LINE
  5
831
100
AcDbEntity
  8
MURO-02
100
AcDbLine
 10
59.88131
 20
22.010819
 30
0.0
 11
71.08131
 21
22.010819
 31
0.0
  0
INSERT
  5
832
100
AcDbEntity
  8
EQUIPAMIENTO
100
AcDbBlockReference
  2
MUEBLE2
 10
65.48131
 20
26.010819
 30
0.0
  0
INSERT
  5
833
100
AcDbEntity
  8
EQUIPAMIENTO
100
AcDbBlockReference
  2
MUEBLE2
 10
59.88131
 20
26.010819
 30
0.0
  0
LINE
  5
834
100
AcDbEntity
  8
EQUIPAMIENTO
100
AcDbLine
 10
64.299754
 20
20.210819
 30
0.0
 11
64.699754
 21
20.210819
 31
0.0
  0
INSERT
  5
835
100
AcDbEntity
  8
ESTRUCTURA
100
AcDbBlockReference
  2
COLUMNA
 10
59.88131
 20
20.810819
 30
0.0
  0
LINE
  5
836
100
AcDbEntity
  8
EQUIPAMIENTO
100
AcDbLine
 10
60.669306
 20
20.210819
 30
0.0
 11
61.069306
 21
20.210819
 31
0.0
  0
LINE
  5
837
100
AcDbEntity
  8
EQUIPAMIENTO
100
AcDbLine
 10
62.48453
 20
20.210819
 30
0.0
 11
62.88453
 21
20.210819
 31
0.0
  0
INSERT
  5
838
100
AcDbEntity
  8
ESTRUCTURA
100
AcDbBlockReference
  2
COLUMNA
 10
65.48131
 20
20.810819
 30
0.0
  0
LINE
  5
839
100
AcDbEntity
  8
EQUIPAMIENTO
100
AcDbLine
 10
66.261553
 20
20.210819
 30
0.0
 11
66.661553
 21
20.210819
 31
0.0
  0
LINE
  5
83A
100
AcDbEntity
  8
EQUIPAMIENTO
100
AcDbLine
 10
68.076753
 20
20.210819
 30
0.0
 11
68.476753
 21
20.210819
 31
0.0
  0
INSERT
  5
83B
100
AcDbEntity
  8
EQUIPAMIENTO
100
AcDbBlockReference
  2
MUEBLE1
 10
59.88131
 20
31.610819
 30
0.0
  0
INSERT
  5
83C
100
AcDbEntity
  8
ESTRUCTURA
100
AcDbBlockReference
  2
COLUMNA
 10
59.88131
 20
26.410819
 30
0.0
  0
INSERT
  5
83D
100
AcDbEntity
  8
ESTRUCTURA
100
AcDbBlockReference
  2
COLUMNA
 10
59.88131
 20
32.010819
 30
0.0
  0
INSERT
  5
83E
100
AcDbEntity
  8
EQUIPAMIENTO
100
AcDbBlockReference
  2
MUEBLE1
 10
65.48131
 20
31.610819
 30
0.0
  0
INSERT
  5
83F
100
AcDbEntity
  8
ESTRUCTURA
100
AcDbBlockReference
  2
COLUMNA
 10
65.48131
 20
26.410819
 30
0.0
  0
INSERT
  5
840
100
AcDbEntity
  8
ESTRUCTURA
100
AcDbBlockReference
  2
COLUMNA
 10
65.48131
 20
32.010819
 30
0.0
  0
LINE
  5
841
100
AcDbEntity
  8
MURO-02
100
AcDbLine
 10
74.98131
 20
33.844152
 30
0.0
 11
74.98131
 21
25.810819
 31
0.0
  0
LINE
  5
842
100
AcDbEntity
  8
MURO-02
100
AcDbLine
 10
80.63131
 20
25.910819
 30
0.0
 11
80.63131
 21
25.810819
 31
0.0
  0
LINE
  5
843
100
AcDbEntity
  8
MURO-02
100
AcDbLine
 10
79.63131
 20
29.810819
 30
0.0
 11
79.63131
 21
25.810819
 31
0.0
  0
LINE
  5
844
100
AcDbEntity
  8
MURO-02
100
AcDbLine
 10
76.78131
 20
25.910819
 30
0.0
 11
76.78131
 21
25.810819
 31
0.0
  0
LINE
  5
845
100
AcDbEntity
  8
MURO-02
100
AcDbLine
 10
75.78131
 20
25.910819
 30
0.0
 11
75.78131
 21
25.810819
 31
0.0
  0
LINE
  5
846
100
AcDbEntity
  8
MURO-02
100
AcDbLine
 10
71.08131
 20
27.410819
 30
0.0
 11
71.08131
 21
22.010819
 31
0.0
  0
LINE
  5
847
100
AcDbEntity
  8
MURO-02
100
AcDbLine
 10
75.78131
 20
25.810819
 30
0.0
 11
74.98131
 21
25.810819
 31
0.0
  0
LINE
  5
848
100
AcDbEntity
  8
MURO-02
100
AcDbLine
 10
75.08131
 20
22.010819
 30
0.0
 11
78.78131
 21
22.010819
 31
0.0
  0
INSERT
  5
849
100
AcDbEntity
  8
ESTRUCTURA
100
AcDbBlockReference
  2
COLUMNA
 10
71.08131
 20
20.810819
 30
0.0
  0
LINE
  5
84A
100
AcDbEntity
  8
EQUIPAMIENTO
100
AcDbLine
 10
69.891953
 20
20.210819
 30
0.0
 11
70.291953
 21
20.210819
 31
0.0
  0
LINE
  5
84B
100
AcDbEntity
  8
EQUIPAMIENTO
100
AcDbLine
 10
71.904153
 20
20.210819
 30
0.0
 11
72.304153
 21
20.210819
 31
0.0
  0
LINE
  5
84C
100
AcDbEntity
  8
EQUIPAMIENTO
100
AcDbLine
 10
73.916353
 20
20.210819
 30
0.0
 11
74.316353
 21
20.210819
 31
0.0
  0
LINE
  5
84D
100
AcDbEntity
  8
MURO-02
100
AcDbLine
 10
71.28131
 20
22.010819
 30
0.0
 11
74.98131
 21
22.010819
 31
0.0
  0
LINE
  5
84E
100
AcDbEntity
  8
EQUIPAMIENTO
100
AcDbLine
 10
71.68131
 20
22.410819
 30
0.0
 11
71.68131
 21
25.810819
 31
0.0
  0
LINE
  5
84F
100
AcDbEntity
  8
MURO-02
100
AcDbLine
 10
71.28131
 20
22.310819
 30
0.0
 11
71.28131
 21
22.010819
 31
0.0
  0
LINE
  5
850
100
AcDbEntity
  8
EQUIPAMIENTO
100
AcDbLine
 10
71.68131
 20
25.810819
 30
0.0
 11
71.28131
 21
25.810819
 31
0.0
  0
LINE
  5
851
100
AcDbEntity
  8
EQUIPAMIENTO
100
AcDbLine
 10
74.78131
 20
24.010819
 30
0.0
 11
74.78131
 21
22.410819
 31
0.0
  0
LINE
  5
852
100
AcDbEntity
  8
EQUIPAMIENTO
100
AcDbLine
 10
73.48131
 20
24.010819
 30
0.0
 11
73.48131
 21
22.410819
 31
0.0
  0
LINE
  5
853
100
AcDbEntity
  8
EQUIPAMIENTO
100
AcDbLine
 10
73.28131
 20
22.410819
 30
0.0
 11
73.28131
 21
24.010819
 31
0.0
  0
LINE
  5
854
100
AcDbEntity
  8
EQUIPAMIENTO
100
AcDbLine
 10
73.68131
 20
22.410819
 30
0.0
 11
73.68131
 21
24.010819
 31
0.0
  0
LINE
  5
855
100
AcDbEntity
  8
EQUIPAMIENTO
100
AcDbLine
 10
74.58131
 20
22.410819
 30
0.0
 11
74.58131
 21
24.010819
 31
0.0
  0
LINE
  5
856
100
AcDbEntity
  8
EQUIPAMIENTO
100
AcDbLine
 10
74.98131
 20
22.410819
 30
0.0
 11
74.98131
 21
24.010819
 31
0.0
  0
LINE
  5
857
100
AcDbEntity
  8
MURO-02
100
AcDbLine
 10
74.98131
 20
22.010819
 30
0.0
 11
75.08131
 21
22.010819
 31
0.0
  0
LINE
  5
858
100
AcDbEntity
  8
EQUIPAMIENTO
100
AcDbLine
 10
73.68131
 20
24.010819
 30
0.0
 11
73.28131
 21
24.010819
 31
0.0
  0
LINE
  5
859
100
AcDbEntity
  8
EQUIPAMIENTO
100
AcDbLine
 10
74.98131
 20
24.010819
 30
0.0
 11
74.58131
 21
24.010819
 31
0.0
  0
INSERT
  5
85A
100
AcDbEntity
  8
ESTRUCTURA
100
AcDbBlockReference
  2
COLUMNA
 10
76.68131
 20
20.810819
 30
0.0
  0
LINE
  5
85B
100
AcDbEntity
  8
MURO-02
100
AcDbLine
 10
79.63131
 20
25.810819
 30
0.0
 11
76.78131
 21
25.810819
 31
0.0
  0
LINE
  5
85C
100
AcDbEntity
  8
EQUIPAMIENTO
100
AcDbLine
 10
77.38131
 20
24.010819
 30
0.0
 11
77.38131
 21
22.410819
 31
0.0
  0
LINE
  5
85D
100
AcDbEntity
  8
EQUIPAMIENTO
100
AcDbLine
 10
76.08131
 20
24.010819
 30
0.0
 11
76.08131
 21
22.410819
 31
0.0
  0
LINE
  5
85E
100
AcDbEntity
  8
EQUIPAMIENTO
100
AcDbLine
 10
75.88131
 20
22.410819
 30
0.0
 11
75.88131
 21
24.010819
 31
0.0
  0
LINE
  5
85F
100
AcDbEntity
  8
EQUIPAMIENTO
100
AcDbLine
 10
76.28131
 20
22.410819
 30
0.0
 11
76.28131
 21
24.010819
 31
0.0
  0
LINE
  5
860
100
AcDbEntity
  8
EQUIPAMIENTO
100
AcDbLine
 10
77.18131
 20
22.410819
 30
0.0
 11
77.18131
 21
24.010819
 31
0.0
  0
LINE
  5
861
100
AcDbEntity
  8
EQUIPAMIENTO
100
AcDbLine
 10
77.58131
 20
22.410819
 30
0.0
 11
77.58131
 21
24.010819
 31
0.0
  0
LINE
  5
862
100
AcDbEntity
  8
EQUIPAMIENTO
100
AcDbLine
 10
76.28131
 20
24.010819
 30
0.0
 11
75.88131
 21
24.010819
 31
0.0
  0
LINE
  5
863
100
AcDbEntity
  8
EQUIPAMIENTO
100
AcDbLine
 10
77.58131
 20
24.010819
 30
0.0
 11
77.18131
 21
24.010819
 31
0.0
  0
LINE
  5
864
100
AcDbEntity
  8
EQUIPAMIENTO
100
AcDbLine
 10
79.98131
 20
24.010819
 30
0.0
 11
79.98131
 21
22.410819
 31
0.0
  0
LINE
  5
865
100
AcDbEntity
  8
EQUIPAMIENTO
100
AcDbLine
 10
78.68131
 20
24.010819
 30
0.0
 11
78.68131
 21
22.410819
 31
0.0
  0
LINE
  5
866
100
AcDbEntity
  8
EQUIPAMIENTO
100
AcDbLine
 10
78.48131
 20
22.410819
 30
0.0
 11
78.48131
 21
24.010819
 31
0.0
  0
LINE
  5
867
100
AcDbEntity
  8
EQUIPAMIENTO
100
AcDbLine
 10
78.88131
 20
22.410819
 30
0.0
 11
78.88131
 21
24.010819
 31
0.0
  0
LINE
  5
868
100
AcDbEntity
  8
EQUIPAMIENTO
100
AcDbLine
 10
79.78131
 20
22.410819
 30
0.0
 11
79.78131
 21
24.010819
 31
0.0
  0
LINE
  5
869
100
AcDbEntity
  8
EQUIPAMIENTO
100
AcDbLine
 10
80.18131
 20
22.410819
 30
0.0
 11
80.18131
 21
24.010819
 31
0.0
  0
LINE
  5
86A
100
AcDbEntity
  8
MURO-02
100
AcDbLine
 10
78.78131
 20
22.010819
 30
0.0
 11
78.88131
 21
22.010819
 31
0.0
  0
LINE
  5
86B
100
AcDbEntity
  8
EQUIPAMIENTO
100
AcDbLine
 10
78.88131
 20
24.010819
 30
0.0
 11
78.48131
 21
24.010819
 31
0.0
  0
LINE
  5
86C
100
AcDbEntity
  8
EQUIPAMIENTO
100
AcDbLine
 10
80.18131
 20
24.010819
 30
0.0
 11
79.78131
 21
24.010819
 31
0.0
  0
LINE
  5
86D
100
AcDbEntity
  8
MURO-02
100
AcDbLine
 10
75.08131
 20
32.910819
 30
0.0
 11
76.48131
 21
32.910819
 31
0.0
  0
LINE
  5
86E
100
AcDbEntity
  8
MURO-02
100
AcDbLine
 10
75.78131
 20
25.910819
 30
0.0
 11
75.08131
 21
25.910819
 31
0.0
  0
LINE
  5
86F
100
AcDbEntity
  8
MURO-02
100
AcDbLine
 10
78.78131
 20
29.810819
 30
0.0
 11
75.08131
 21
29.810819
 31
0.0
  0
LINE
  5
870
100
AcDbEntity
  8
MURO-02
100
AcDbLine
 10
75.08131
 20
32.710819
 30
0.0
 11
75.08131
 21
29.910819
 31
0.0
  0
LINE
  5
871
100
AcDbEntity
  8
MURO-02
100
AcDbLine
 10
75.08131
 20
29.810819
 30
0.0
 11
75.08131
 21
25.910819
 31
0.0
  0
LINE
  5
872
100
AcDbEntity
  8
MURO-02
100
AcDbLine
 10
75.08131
 20
33.844152
 30
0.0
 11
75.08131
 21
32.910819
 31
0.0
  0
LINE
  5
873
100
AcDbEntity
  8
MURO-02
100
AcDbLine
 10
75.08131
 20
33.844152
 30
0.0
 11
74.98131
 21
33.844152
 31
0.0
  0
LINE
  5
874
100
AcDbEntity
  8
MURO-02
100
AcDbLine
 10
79.53131
 20
25.910819
 30
0.0
 11
76.78131
 21
25.910819
 31
0.0
  0
LINE
  5
875
100
AcDbEntity
  8
EQUIPAMIENTO
100
AcDbLine
 10
75.78131
 20
25.910819
 30
0.0
 11
75.78131
 21
29.810819
 31
0.0
  0
LINE
  5
876
100
AcDbEntity
  8
MURO-02
100
AcDbLine
 10
76.98131
 20
29.010819
 30
0.0
 11
76.98131
 21
26.710819
 31
0.0
  0
LINE
  5
877
100
AcDbEntity
  8
MURO-02
100
AcDbLine
 10
76.88131
 20
29.010819
 30
0.0
 11
76.88131
 21
26.710819
 31
0.0
  0
LINE
  5
878
100
AcDbEntity
  8
MURO-02
100
AcDbLine
 10
76.98131
 20
26.710819
 30
0.0
 11
76.88131
 21
26.710819
 31
0.0
  0
LINE
  5
879
100
AcDbEntity
  8
MURO-02
100
AcDbLine
 10
76.98131
 20
29.010819
 30
0.0
 11
76.88131
 21
29.010819
 31
0.0
  0
LINE
  5
87A
100
AcDbEntity
  8
EQUIPAMIENTO
100
AcDbLine
 10
78.28131
 20
28.910819
 30
0.0
 11
78.28131
 21
27.910819
 31
0.0
  0
LINE
  5
87B
100
AcDbEntity
  8
MURO-02
100
AcDbLine
 10
79.53131
 20
28.910819
 30
0.0
 11
79.53131
 21
27.910819
 31
0.0
  0
LINE
  5
87C
100
AcDbEntity
  8
MURO-02
100
AcDbLine
 10
79.53131
 20
26.710819
 30
0.0
 11
78.28131
 21
26.710819
 31
0.0
  0
LINE
  5
87D
100
AcDbEntity
  8
MURO-02
100
AcDbLine
 10
79.53131
 20
26.810819
 30
0.0
 11
78.28131
 21
26.810819
 31
0.0
  0
LINE
  5
87E
100
AcDbEntity
  8
MURO-02
100
AcDbLine
 10
79.53131
 20
27.810819
 30
0.0
 11
78.28131
 21
27.810819
 31
0.0
  0
LINE
  5
87F
100
AcDbEntity
  8
MURO-02
100
AcDbLine
 10
79.53131
 20
27.910819
 30
0.0
 11
78.28131
 21
27.910819
 31
0.0
  0
LINE
  5
880
100
AcDbEntity
  8
EQUIPAMIENTO
100
AcDbLine
 10
78.28131
 20
26.710819
 30
0.0
 11
78.28131
 21
25.910819
 31
0.0
  0
LINE
  5
881
100
AcDbEntity
  8
EQUIPAMIENTO
100
AcDbLine
 10
78.28131
 20
27.810819
 30
0.0
 11
78.28131
 21
26.810819
 31
0.0
  0
LINE
  5
882
100
AcDbEntity
  8
MURO-02
100
AcDbLine
 10
78.28131
 20
27.910819
 30
0.0
 11
78.28131
 21
27.810819
 31
0.0
  0
LINE
  5
883
100
AcDbEntity
  8
MURO-02
100
AcDbLine
 10
78.28131
 20
26.810819
 30
0.0
 11
78.28131
 21
26.710819
 31
0.0
  0
LINE
  5
884
100
AcDbEntity
  8
MURO-02
100
AcDbLine
 10
79.53131
 20
26.710819
 30
0.0
 11
79.53131
 21
25.910819
 31
0.0
  0
LINE
  5
885
100
AcDbEntity
  8
MURO-02
100
AcDbLine
 10
79.53131
 20
27.810819
 30
0.0
 11
79.53131
 21
26.810819
 31
0.0
  0
LINE
  5
886
100
AcDbEntity
  8
MURO-02
100
AcDbLine
 10
79.53131
 20
28.910819
 30
0.0
 11
78.28131
 21
28.910819
 31
0.0
  0
LINE
  5
887
100
AcDbEntity
  8
MURO-02
100
AcDbLine
 10
79.53131
 20
29.010819
 30
0.0
 11
78.28131
 21
29.010819
 31
0.0
  0
LINE
  5
888
100
AcDbEntity
  8
MURO-02
100
AcDbLine
 10
79.53131
 20
29.810819
 30
0.0
 11
78.88131
 21
29.810819
 31
0.0
  0
LINE
  5
889
100
AcDbEntity
  8
EQUIPAMIENTO
100
AcDbLine
 10
78.28131
 20
29.010819
 30
0.0
 11
78.28131
 21
29.810819
 31
0.0
  0
LINE
  5
88A
100
AcDbEntity
  8
MURO-02
100
AcDbLine
 10
78.78131
 20
29.810819
 30
0.0
 11
78.88131
 21
29.810819
 31
0.0
  0
LINE
  5
88B
100
AcDbEntity
  8
MURO-02
100
AcDbLine
 10
78.28131
 20
29.010819
 30
0.0
 11
78.28131
 21
28.910819
 31
0.0
  0
LINE
  5
88C
100
AcDbEntity
  8
MURO-02
100
AcDbLine
 10
79.53131
 20
29.810819
 30
0.0
 11
79.53131
 21
29.010819
 31
0.0
  0
LINE
  5
88D
100
AcDbEntity
  8
MURO-02
100
AcDbLine
 10
78.78131
 20
34.294152
 30
0.0
 11
76.48131
 21
34.294152
 31
0.0
  0
LINE
  5
88E
100
AcDbEntity
  8
MURO-02
100
AcDbLine
 10
78.78131
 20
34.394152
 30
0.0
 11
76.48131
 21
34.394152
 31
0.0
  0
LINE
  5
88F
100
AcDbEntity
  8
MURO-02
100
AcDbLine
 10
78.78131
 20
32.910819
 30
0.0
 11
76.58131
 21
32.910819
 31
0.0
  0
INSERT
  5
890
100
AcDbEntity
  8
ESTRUCTURA
100
AcDbBlockReference
  2
COLUMNA
 10
76.68131
 20
32.010819
 30
0.0
  0
LINE
  5
891
100
AcDbEntity
  8
MURO-02
100
AcDbLine
 10
76.48131
 20
34.394152
 30
0.0
 11
76.48131
 21
34.294152
 31
0.0
  0
LINE
  5
892
100
AcDbEntity
  8
MURO-02
100
AcDbLine
 10
76.58131
 20
33.294152
 30
0.0
 11
76.58131
 21
32.910819
 31
0.0
  0
LINE
  5
893
100
AcDbEntity
  8
MURO-02
100
AcDbLine
 10
76.48131
 20
33.294152
 30
0.0
 11
76.48131
 21
32.910819
 31
0.0
  0
LINE
  5
894
100
AcDbEntity
  8
MURO-02
100
AcDbLine
 10
76.58131
 20
33.294152
 30
0.0
 11
76.48131
 21
33.294152
 31
0.0
  0
LINE
  5
895
100
AcDbEntity
  8
MURO-02
100
AcDbLine
 10
78.78131
 20
34.294152
 30
0.0
 11
78.78131
 21
32.910819
 31
0.0
  0
LINE
  5
896
100
AcDbEntity
  8
SOLADO
100
AcDbLine
 10
98.88131
 20
32.210819
 30
0.0
 11
95.33131
 21
3.136132
 31
0.0
  0
LINE
  5
897
100
AcDbEntity
  8
SOLADO
100
AcDbLine
 10
95.33131
 20
33.210819
 30
0.0
 11
95.33131
 21
3.136132
 31
0.0
  0
LINE
  5
898
100
AcDbEntity
  8
CARPINTERIA
100
AcDbLine
 10
94.53131
 20
3.441829
 30
0.0
 11
94.53131
 21
33.210819
 31
0.0
  0
LINE
  5
899
100
AcDbEntity
  8
CARPINTERIA
100
AcDbLine
 10
94.58131
 20
3.373555
 30
0.0
 11
94.58131
 21
33.210819
 31
0.0
  0
LINE
  5
89A
100
AcDbEntity
  8
ESCALERA
100
AcDbLine
 10
81.18131
 20
18.010819
 30
0.0
 11
81.18131
 21
17.010819
 31
0.0
  0
LINE
  5
89B
100
AcDbEntity
  8
ESCALERA
100
AcDbLine
 10
80.93131
 20
18.010819
 30
0.0
 11
80.93131
 21
17.010819
 31
0.0
  0
LINE
  5
89C
100
AcDbEntity
  8
EQUIPAMIENTO
100
AcDbLine
 10
83.73131
 20
20.810819
 30
0.0
 11
83.73131
 21
17.010819
 31
0.0
  0
LINE
  5
89D
100
AcDbEntity
  8
EQUIPAMIENTO
100
AcDbLine
 10
83.33131
 20
20.810819
 30
0.0
 11
83.33131
 21
17.010819
 31
0.0
  0
LINE
  5
89E
100
AcDbEntity
  8
SOLADO
100
AcDbLine
 10
88.816131
 20
3.91003
 30
0.0
 11
92.128155
 21
2.806022
 31
0.0
  0
LINE
  5
89F
100
AcDbEntity
  8
SOLADO
100
AcDbLine
 10
92.485989
 20
3.879522
 30
0.0
 11
89.141621
 21
4.938228
 31
0.0
  0
LINE
  5
8A0
100
AcDbEntity
  8
EQUIPAMIENTO
100
AcDbLine
 10
91.68131
 20
17.010819
 30
0.0
 11
92.08131
 21
17.010819
 31
0.0
  0
LINE
  5
8A1
100
AcDbEntity
  8
EQUIPAMIENTO
100
AcDbLine
 10
92.08131
 20
5.73833
 30
0.0
 11
91.68131
 21
5.864956
 31
0.0
  0
LINE
  5
8AA
100
AcDbEntity
  8
EQUIPAMIENTO
100
AcDbLine
 10
85.28131
 20
17.010819
 30
0.0
 11
85.28131
 21
7.890965
 31
0.0
  0
LINE
  5
8AB
100
AcDbEntity
  8
EQUIPAMIENTO
100
AcDbLine
 10
85.48131
 20
17.010819
 30
0.0
 11
85.48131
 21
7.827652
 31
0.0
  0
LINE
  5
8AC
100
AcDbEntity
  8
EQUIPAMIENTO
100
AcDbLine
 10
85.68131
 20
17.010819
 30
0.0
 11
85.68131
 21
7.764339
 31
0.0
  0
LINE
  5
8AD
100
AcDbEntity
  8
EQUIPAMIENTO
100
AcDbLine
 10
86.88131
 20
17.010819
 30
0.0
 11
86.88131
 21
7.384462
 31
0.0
  0
LINE
  5
8AE
100
AcDbEntity
  8
EQUIPAMIENTO
100
AcDbLine
 10
87.08131
 20
17.010819
 30
0.0
 11
87.08131
 21
7.32115
 31
0.0
  0
LINE
  5
8AF
100
AcDbEntity
  8
EQUIPAMIENTO
100
AcDbLine
 10
91.68131
 20
17.010819
 30
0.0
 11
91.68131
 21
5.864956
 31
0.0
  0
LINE
  5
8B0
100
AcDbEntity
  8
EQUIPAMIENTO
100
AcDbLine
 10
90.48131
 20
17.010819
 30
0.0
 11
90.48131
 21
6.244832
 31
0.0
  0
LINE
  5
8B1
100
AcDbEntity
  8
EQUIPAMIENTO
100
AcDbLine
 10
90.28131
 20
17.010819
 30
0.0
 11
90.28131
 21
6.308145
 31
0.0
  0
LINE
  5
8B2
100
AcDbEntity
  8
EQUIPAMIENTO
100
AcDbLine
 10
90.08131
 20
17.010819
 30
0.0
 11
90.08131
 21
6.371458
 31
0.0
  0
LINE
  5
8B3
100
AcDbEntity
  8
EQUIPAMIENTO
100
AcDbLine
 10
88.88131
 20
17.010819
 30
0.0
 11
88.88131
 21
6.751335
 31
0.0
  0
LINE
  5
8B4
100
AcDbEntity
  8
EQUIPAMIENTO
100
AcDbLine
 10
88.68131
 20
17.010819
 30
0.0
 11
88.68131
 21
6.814647
 31
0.0
  0
LINE
  5
8B5
100
AcDbEntity
  8
EQUIPAMIENTO
100
AcDbLine
 10
87.28131
 20
17.010819
 30
0.0
 11
87.28131
 21
7.257837
 31
0.0
  0
LINE
  5
8B6
100
AcDbEntity
  8
EQUIPAMIENTO
100
AcDbLine
 10
88.48131
 20
17.010819
 30
0.0
 11
88.48131
 21
6.87796
 31
0.0
  0
LINE
  5
8B7
100
AcDbEntity
  8
EQUIPAMIENTO
100
AcDbLine
 10
85.68131
 20
7.764339
 30
0.0
 11
85.28131
 21
7.890965
 31
0.0
  0
LINE
  5
8B8
100
AcDbEntity
  8
SOLADO
100
AcDbLine
 10
88.816131
 20
3.91003
 30
0.0
 11
89.141621
 21
4.938228
 31
0.0
  0
INSERT
  5
8B9
100
AcDbEntity
  8
ESTRUCTURA
100
AcDbBlockReference
  2
COLUMNA
 10
87.88131
 20
4.010819
 30
0.0
  0
LINE
  5
8BA
100
AcDbEntity
  8
EQUIPAMIENTO
100
AcDbLine
 10
87.28131
 20
7.257837
 30
0.0
 11
86.88131
 21
7.384462
 31
0.0
  0
LINE
  5
8BB
100
AcDbEntity
  8
EQUIPAMIENTO
100
AcDbLine
 10
88.88131
 20
6.751335
 30
0.0
 11
88.48131
 21
6.87796
 31
0.0
  0
LINE
  5
8BC
100
AcDbEntity
  8
EQUIPAMIENTO
100
AcDbLine
 10
90.48131
 20
6.244832
 30
0.0
 11
90.08131
 21
6.371458
 31
0.0
  0
LINE
  5
8BD
100
AcDbEntity
  8
EQUIPAMIENTO
100
AcDbLine
 10
85.68131
 20
13.010819
 30
0.0
 11
86.88131
 21
13.010819
 31
0.0
  0
CIRCLE
  5
8BE
100
AcDbEntity
  8
EQUIPAMIENTO
100
AcDbCircle
 10
82.28131
 20
15.210819
 30
0.0
 40
0.7
  0
INSERT
  5
8BF
100
AcDbEntity
  8
ESTRUCTURA
100
AcDbBlockReference
  2
COLUMNA
 10
82.28131
 20
15.210819
 30
0.0
  0
LINE
  5
8C0
100
AcDbEntity
  8
EQUIPAMIENTO
100
AcDbLine
 10
81.53131
 20
13.260819
 30
0.0
 11
83.33131
 21
13.260819
 31
0.0
  0
LINE
  5
8C1
100
AcDbEntity
  8
EQUIPAMIENTO
100
AcDbLine
 10
81.53131
 20
13.510819
 30
0.0
 11
83.33131
 21
13.510819
 31
0.0
  0
LINE
  5
8C2
100
AcDbEntity
  8
EQUIPAMIENTO
100
AcDbLine
 10
81.53131
 20
13.510819
 30
0.0
 11
81.53131
 21
13.010819
 31
0.0
  0
LINE
  5
8C3
100
AcDbEntity
  8
EQUIPAMIENTO
100
AcDbLine
 10
83.33131
 20
13.510819
 30
0.0
 11
83.33131
 21
13.010819
 31
0.0
  0
LINE
  5
8C4
100
AcDbEntity
  8
EQUIPAMIENTO
100
AcDbLine
 10
85.28131
 20
17.010819
 30
0.0
 11
85.68131
 21
17.010819
 31
0.0
  0
LINE
  5
8C5
100
AcDbEntity
  8
EQUIPAMIENTO
100
AcDbLine
 10
88.88131
 20
13.010819
 30
0.0
 11
90.08131
 21
13.010819
 31
0.0
  0
INSERT
  5
8C6
100
AcDbEntity
  8
ESTRUCTURA
100
AcDbBlockReference
  2
COLUMNA
 10
87.88131
 20
15.210819
 30
0.0
  0
LINE
  5
8C7
100
AcDbEntity
  8
EQUIPAMIENTO
100
AcDbLine
 10
87.28131
 20
13.010819
 30
0.0
 11
88.48131
 21
13.010819
 31
0.0
  0
LINE
  5
8C8
100
AcDbEntity
  8
EQUIPAMIENTO
100
AcDbLine
 10
86.88131
 20
17.010819
 30
0.0
 11
87.28131
 21
17.010819
 31
0.0
  0
LINE
  5
8C9
100
AcDbEntity
  8
EQUIPAMIENTO
100
AcDbLine
 10
88.48131
 20
17.010819
 30
0.0
 11
88.88131
 21
17.010819
 31
0.0
  0
LINE
  5
8CA
100
AcDbEntity
  8
EQUIPAMIENTO
100
AcDbLine
 10
90.48131
 20
13.010819
 30
0.0
 11
91.68131
 21
13.010819
 31
0.0
  0
LINE
  5
8CB
100
AcDbEntity
  8
EQUIPAMIENTO
100
AcDbLine
 10
90.08131
 20
17.010819
 30
0.0
 11
90.48131
 21
17.010819
 31
0.0
  0
LINE
  5
8CC
100
AcDbEntity
  8
EQUIPAMIENTO
100
AcDbLine
 10
92.08131
 20
17.010819
 30
0.0
 11
92.08131
 21
5.73833
 31
0.0
  0
LINE
  5
8CD
100
AcDbEntity
  8
EQUIPAMIENTO
100
AcDbLine
 10
91.88131
 20
17.010819
 30
0.0
 11
91.88131
 21
5.801643
 31
0.0
  0
LINE
  5
8CE
100
AcDbEntity
  8
EQUIPAMIENTO
100
AcDbLine
 10
94.18131
 20
13.010819
 30
0.0
 11
94.18131
 21
4.024636
 31
0.0
  0
LINE
  5
8CF
100
AcDbEntity
  8
SOLADO
100
AcDbLine
 10
92.485989
 20
3.879522
 30
0.0
 11
92.128155
 21
2.806022
 31
0.0
  0
INSERT
  5
8D0
100
AcDbEntity
  8
ESTRUCTURA
100
AcDbBlockReference
  2
COLUMNA
 10
93.48131
 20
4.010819
 30
0.0
  0
LINE
  5
8D1
100
AcDbEntity
  8
SOLADO
100
AcDbLine
 10
95.33131
 20
3.136132
 30
0.0
 11
94.58131
 21
3.373555
 31
0.0
  0
INSERT
  5
8D2
100
AcDbEntity
  8
ESTRUCTURA
100
AcDbBlockReference
  2
COLUMNA
 10
99.08131
 20
4.010819
 30
0.0
  0
CIRCLE
  5
8D3
100
AcDbEntity
  8
EQUIPAMIENTO
100
AcDbCircle
 10
93.48131
 20
15.210819
 30
0.0
 40
0.7
  0
INSERT
  5
8D4
100
AcDbEntity
  8
ESTRUCTURA
100
AcDbBlockReference
  2
COLUMNA
 10
93.48131
 20
15.210819
 30
0.0
  0
LINE
  5
8D5
100
AcDbEntity
  8
EQUIPAMIENTO
100
AcDbLine
 10
92.63131
 20
13.010819
 30
0.0
 11
94.18131
 21
13.010819
 31
0.0
  0
LINE
  5
8D6
100
AcDbEntity
  8
EQUIPAMIENTO
100
AcDbLine
 10
92.23131
 20
13.010819
 30
0.0
 11
92.63131
 21
13.010819
 31
0.0
  0
LINE
  5
8D7
100
AcDbEntity
  8
EQUIPAMIENTO
100
AcDbLine
 10
92.08131
 20
13.010819
 30
0.0
 11
92.23131
 21
13.010819
 31
0.0
  0
INSERT
  5
8D8
100
AcDbEntity
  8
ESTRUCTURA
100
AcDbBlockReference
  2
COLUMNA
 10
99.08131
 20
9.610819
 30
0.0
  0
INSERT
  5
8D9
100
AcDbEntity
  8
ESTRUCTURA
100
AcDbBlockReference
  2
COLUMNA
 10
99.08131
 20
15.210819
 30
0.0
  0
LINE
  5
8DA
100
AcDbEntity
  8
MURO-02
100
AcDbLine
 10
89.98131
 20
25.110819
 30
0.0
 11
89.98131
 21
29.910819
 31
0.0
  0
LINE
  5
8DB
100
AcDbEntity
  8
MURO-02
100
AcDbLine
 10
89.78131
 20
25.110819
 30
0.0
 11
89.78131
 21
29.910819
 31
0.0
  0
LINE
  5
8DC
100
AcDbEntity
  8
EQUIPAMIENTO
100
AcDbLine
 10
85.601596
 20
25.010993
 30
0.0
 11
88.169552
 21
25.937312
 31
0.0
  0
LINE
  5
8DD
100
AcDbEntity
  8
EQUIPAMIENTO
100
AcDbLine
 10
88.169552
 20
25.937312
 30
0.0
 11
88.610669
 21
24.71444
 31
0.0
  0
LINE
  5
8DE
100
AcDbEntity
  8
EQUIPAMIENTO
100
AcDbLine
 10
84.58131
 20
22.810819
 30
0.0
 11
84.58131
 21
30.910819
 31
0.0
  0
LINE
  5
8DF
100
AcDbEntity
  8
EQUIPAMIENTO
100
AcDbLine
 10
89.38131
 20
29.910819
 30
0.0
 11
89.38131
 21
22.810819
 31
0.0
  0
LINE
  5
8E0
100
AcDbEntity
  8
MURO-02
100
AcDbLine
 10
84.18131
 20
30.910819
 30
0.0
 11
84.18131
 21
22.410819
 31
0.0
  0
LINE
  5
8E1
100
AcDbEntity
  8
EQUIPAMIENTO
100
AcDbLine
 10
86.042713
 20
23.788121
 30
0.0
 11
88.610669
 21
24.71444
 31
0.0
  0
LINE
  5
8E2
100
AcDbEntity
  8
EQUIPAMIENTO
100
AcDbLine
 10
89.38131
 20
22.810819
 30
0.0
 11
84.58131
 21
22.810819
 31
0.0
  0
LINE
  5
8E3
100
AcDbEntity
  8
MURO-02
100
AcDbLine
 10
84.18131
 20
22.410819
 30
0.0
 11
89.78131
 21
22.410819
 31
0.0
  0
LINE
  5
8E4
100
AcDbEntity
  8
MURO-02
100
AcDbLine
 10
84.18131
 20
22.010819
 30
0.0
 11
89.78131
 21
22.010819
 31
0.0
  0
LINE
  5
8E5
100
AcDbEntity
  8
EQUIPAMIENTO
100
AcDbLine
 10
83.33131
 20
20.810819
 30
0.0
 11
83.73131
 21
20.810819
 31
0.0
  0
LINE
  5
8E6
100
AcDbEntity
  8
EQUIPAMIENTO
100
AcDbLine
 10
81.18131
 20
20.810819
 30
0.0
 11
81.18131
 21
18.010819
 31
0.0
  0
CIRCLE
  5
8E7
100
AcDbEntity
  8
EQUIPAMIENTO
100
AcDbCircle
 10
82.28131
 20
20.810819
 30
0.0
 40
0.7
  0
INSERT
  5
8E8
100
AcDbEntity
  8
ESTRUCTURA
100
AcDbBlockReference
  2
COLUMNA
 10
82.28131
 20
20.810819
 30
0.0
  0
LINE
  5
8E9
100
AcDbEntity
  8
EQUIPAMIENTO
100
AcDbLine
 10
81.08131
 20
22.410819
 30
0.0
 11
81.08131
 21
24.010819
 31
0.0
  0
LINE
  5
8EA
100
AcDbEntity
  8
EQUIPAMIENTO
100
AcDbLine
 10
81.68131
 20
22.410819
 30
0.0
 11
81.68131
 21
24.010819
 31
0.0
  0
LINE
  5
8EB
100
AcDbEntity
  8
EQUIPAMIENTO
100
AcDbLine
 10
82.58131
 20
22.410819
 30
0.0
 11
82.58131
 21
24.010819
 31
0.0
  0
LINE
  5
8EC
100
AcDbEntity
  8
EQUIPAMIENTO
100
AcDbLine
 10
83.18131
 20
22.410819
 30
0.0
 11
83.18131
 21
24.010819
 31
0.0
  0
LINE
  5
8ED
100
AcDbEntity
  8
EQUIPAMIENTO
100
AcDbLine
 10
81.68131
 20
22.810819
 30
0.0
 11
81.08131
 21
22.810819
 31
0.0
  0
LINE
  5
8EE
100
AcDbEntity
  8
EQUIPAMIENTO
100
AcDbLine
 10
81.68131
 20
23.210819
 30
0.0
 11
81.08131
 21
23.210819
 31
0.0
  0
LINE
  5
8EF
100
AcDbEntity
  8
EQUIPAMIENTO
100
AcDbLine
 10
81.68131
 20
23.610819
 30
0.0
 11
81.08131
 21
23.610819
 31
0.0
  0
LINE
  5
8F0
100
AcDbEntity
  8
EQUIPAMIENTO
100
AcDbLine
 10
83.18131
 20
22.810819
 30
0.0
 11
82.58131
 21
22.810819
 31
0.0
  0
LINE
  5
8F1
100
AcDbEntity
  8
EQUIPAMIENTO
100
AcDbLine
 10
83.18131
 20
23.210819
 30
0.0
 11
82.58131
 21
23.210819
 31
0.0
  0
LINE
  5
8F2
100
AcDbEntity
  8
EQUIPAMIENTO
100
AcDbLine
 10
83.18131
 20
23.610819
 30
0.0
 11
82.58131
 21
23.610819
 31
0.0
  0
LINE
  5
8F3
100
AcDbEntity
  8
EQUIPAMIENTO
100
AcDbLine
 10
81.68131
 20
24.010819
 30
0.0
 11
81.08131
 21
24.010819
 31
0.0
  0
LINE
  5
8F4
100
AcDbEntity
  8
EQUIPAMIENTO
100
AcDbLine
 10
83.18131
 20
24.010819
 30
0.0
 11
82.58131
 21
24.010819
 31
0.0
  0
LINE
  5
8F5
100
AcDbEntity
  8
MURO-02
100
AcDbLine
 10
84.08131
 20
22.410819
 30
0.0
 11
84.08131
 21
25.810819
 31
0.0
  0
LINE
  5
8F6
100
AcDbEntity
  8
MURO-02
100
AcDbLine
 10
84.08131
 20
22.010819
 30
0.0
 11
84.18131
 21
22.010819
 31
0.0
  0
LINE
  5
8F7
100
AcDbEntity
  8
EQUIPAMIENTO
100
AcDbLine
 10
85.601596
 20
25.010993
 30
0.0
 11
86.042713
 21
23.788121
 31
0.0
  0
CIRCLE
  5
8F8
100
AcDbEntity
  8
EQUIPAMIENTO
100
AcDbCircle
 10
87.88131
 20
20.810819
 30
0.0
 40
0.7
  0
INSERT
  5
8F9
100
AcDbEntity
  8
ESTRUCTURA
100
AcDbBlockReference
  2
COLUMNA
 10
87.88131
 20
20.810819
 30
0.0
  0
LINE
  5
8FA
100
AcDbEntity
  8
CARPINTERIA
100
AcDbLine
 10
89.88131
 20
25.110819
 30
0.0
 11
89.88131
 21
23.110819
 31
0.0
  0
LINE
  5
8FB
100
AcDbEntity
  8
CARPINTERIA
100
AcDbLine
 10
89.83131
 20
25.110819
 30
0.0
 11
89.83131
 21
23.110819
 31
0.0
  0
LINE
  5
8FC
100
AcDbEntity
  8
MURO-01
100
AcDbLine
 10
89.98131
 20
25.110819
 30
0.0
 11
89.98131
 21
23.110819
 31
0.0
  0
LINE
  5
8FD
100
AcDbEntity
  8
MURO-01
100
AcDbLine
 10
89.78131
 20
25.110819
 30
0.0
 11
89.78131
 21
23.110819
 31
0.0
  0
LINE
  5
8FE
100
AcDbEntity
  8
CARPINTERIA
100
AcDbLine
 10
89.83131
 20
23.160819
 30
0.0
 11
89.88131
 21
23.160819
 31
0.0
  0
LINE
  5
8FF
100
AcDbEntity
  8
MURO-02
100
AcDbLine
 10
89.98131
 20
23.110819
 30
0.0
 11
89.78131
 21
23.110819
 31
0.0
  0
LINE
  5
900
100
AcDbEntity
  8
MURO-02
100
AcDbLine
 10
89.78131
 20
22.410819
 30
0.0
 11
89.78131
 21
23.110819
 31
0.0
  0
LINE
  5
901
100
AcDbEntity
  8
MURO-02
100
AcDbLine
 10
89.78131
 20
22.010819
 30
0.0
 11
89.78131
 21
22.310819
 31
0.0
  0
LINE
  5
902
100
AcDbEntity
  8
MURO-02
100
AcDbLine
 10
89.98131
 20
21.810819
 30
0.0
 11
89.98131
 21
23.110819
 31
0.0
  0
LINE
  5
903
100
AcDbEntity
  8
CARPINTERIA
100
AcDbLine
 10
89.83131
 20
25.060819
 30
0.0
 11
89.88131
 21
25.060819
 31
0.0
  0
LINE
  5
904
100
AcDbEntity
  8
MURO-02
100
AcDbLine
 10
89.98131
 20
25.110819
 30
0.0
 11
89.78131
 21
25.110819
 31
0.0
  0
LINE
  5
905
100
AcDbEntity
  8
MURO-02
100
AcDbLine
 10
89.98131
 20
32.710819
 30
0.0
 11
84.18131
 21
32.710819
 31
0.0
  0
LINE
  5
906
100
AcDbEntity
  8
EQUIPAMIENTO
100
AcDbLine
 10
86.08131
 20
29.910819
 30
0.0
 11
86.08131
 21
32.710819
 31
0.0
  0
LINE
  5
907
100
AcDbEntity
  8
EQUIPAMIENTO
100
AcDbLine
 10
85.58131
 20
29.910819
 30
0.0
 11
85.58131
 21
32.710819
 31
0.0
  0
LINE
  5
908
100
AcDbEntity
  8
MURO-02
100
AcDbLine
 10
84.08131
 20
29.910819
 30
0.0
 11
84.08131
 21
30.910819
 31
0.0
  0
LINE
  5
909
100
AcDbEntity
  8
MURO-02
100
AcDbLine
 10
84.08131
 20
27.810819
 30
0.0
 11
82.83131
 21
27.810819
 31
0.0
  0
LINE
  5
90A
100
AcDbEntity
  8
MURO-02
100
AcDbLine
 10
84.08131
 20
27.910819
 30
0.0
 11
82.83131
 21
27.910819
 31
0.0
  0
LINE
  5
90B
100
AcDbEntity
  8
MURO-02
100
AcDbLine
 10
84.08131
 20
26.810819
 30
0.0
 11
82.83131
 21
26.810819
 31
0.0
  0
LINE
  5
90C
100
AcDbEntity
  8
MURO-02
100
AcDbLine
 10
84.08131
 20
28.910819
 30
0.0
 11
82.83131
 21
28.910819
 31
0.0
  0
LINE
  5
90D
100
AcDbEntity
  8
MURO-02
100
AcDbLine
 10
84.08131
 20
29.010819
 30
0.0
 11
82.83131
 21
29.010819
 31
0.0
  0
LINE
  5
90E
100
AcDbEntity
  8
MURO-02
100
AcDbLine
 10
84.08131
 20
26.710819
 30
0.0
 11
82.83131
 21
26.710819
 31
0.0
  0
LINE
  5
90F
100
AcDbEntity
  8
MURO-02
100
AcDbLine
 10
84.08131
 20
25.910819
 30
0.0
 11
81.53131
 21
25.910819
 31
0.0
  0
LINE
  5
910
100
AcDbEntity
  8
EQUIPAMIENTO
100
AcDbLine
 10
80.83131
 20
28.910819
 30
0.0
 11
80.83131
 21
25.910819
 31
0.0
  0
LINE
  5
911
100
AcDbEntity
  8
EQUIPAMIENTO
100
AcDbLine
 10
82.83131
 20
28.910819
 30
0.0
 11
82.83131
 21
27.910819
 31
0.0
  0
LINE
  5
912
100
AcDbEntity
  8
MURO-02
100
AcDbLine
 10
81.43131
 20
25.910819
 30
0.0
 11
81.43131
 21
28.910819
 31
0.0
  0
LINE
  5
913
100
AcDbEntity
  8
MURO-02
100
AcDbLine
 10
81.53131
 20
25.910819
 30
0.0
 11
81.53131
 21
29.010819
 31
0.0
  0
LINE
  5
914
100
AcDbEntity
  8
EQUIPAMIENTO
100
AcDbLine
 10
82.83131
 20
26.710819
 30
0.0
 11
82.83131
 21
25.910819
 31
0.0
  0
LINE
  5
915
100
AcDbEntity
  8
EQUIPAMIENTO
100
AcDbLine
 10
82.83131
 20
27.810819
 30
0.0
 11
82.83131
 21
26.810819
 31
0.0
  0
LINE
  5
916
100
AcDbEntity
  8
MURO-02
100
AcDbLine
 10
82.83131
 20
27.810819
 30
0.0
 11
82.83131
 21
27.910819
 31
0.0
  0
LINE
  5
917
100
AcDbEntity
  8
MURO-02
100
AcDbLine
 10
82.83131
 20
26.710819
 30
0.0
 11
82.83131
 21
26.810819
 31
0.0
  0
LINE
  5
918
100
AcDbEntity
  8
MURO-02
100
AcDbLine
 10
80.83131
 20
28.910819
 30
0.0
 11
81.43131
 21
28.910819
 31
0.0
  0
LINE
  5
919
100
AcDbEntity
  8
MURO-02
100
AcDbLine
 10
80.83131
 20
28.910819
 30
0.0
 11
80.83131
 21
29.010819
 31
0.0
  0
LINE
  5
91A
100
AcDbEntity
  8
MURO-02
100
AcDbLine
 10
80.83131
 20
29.010819
 30
0.0
 11
81.53131
 21
29.010819
 31
0.0
  0
LINE
  5
91B
100
AcDbEntity
  8
EQUIPAMIENTO
100
AcDbLine
 10
82.83131
 20
29.010819
 30
0.0
 11
82.83131
 21
29.810819
 31
0.0
  0
LINE
  5
91C
100
AcDbEntity
  8
MURO-02
100
AcDbLine
 10
82.83131
 20
28.910819
 30
0.0
 11
82.83131
 21
29.010819
 31
0.0
  0
LINE
  5
91D
100
AcDbEntity
  8
MURO-02
100
AcDbLine
 10
84.08131
 20
27.910819
 30
0.0
 11
84.08131
 21
28.910819
 31
0.0
  0
LINE
  5
91E
100
AcDbEntity
  8
MURO-02
100
AcDbLine
 10
84.08131
 20
26.810819
 30
0.0
 11
84.08131
 21
27.810819
 31
0.0
  0
LINE
  5
91F
100
AcDbEntity
  8
MURO-02
100
AcDbLine
 10
84.08131
 20
25.910819
 30
0.0
 11
84.08131
 21
26.710819
 31
0.0
  0
LINE
  5
920
100
AcDbEntity
  8
MURO-02
100
AcDbLine
 10
84.08131
 20
29.010819
 30
0.0
 11
84.08131
 21
29.810819
 31
0.0
  0
LINE
  5
921
100
AcDbEntity
  8
EQUIPAMIENTO
100
AcDbLine
 10
86.08131
 20
29.910819
 30
0.0
 11
85.58131
 21
29.910819
 31
0.0
  0
INSERT
  5
922
100
AcDbEntity
  8
ESTRUCTURA
100
AcDbBlockReference
  2
COLUMNA
 10
82.28131
 20
32.010819
 30
0.0
  0
LINE
  5
923
100
AcDbEntity
  8
EQUIPAMIENTO
100
AcDbLine
 10
84.58131
 20
31.910819
 30
0.0
 11
84.58131
 21
32.710819
 31
0.0
  0
LINE
  5
924
100
AcDbEntity
  8
MURO-02
100
AcDbLine
 10
84.08131
 20
31.910819
 30
0.0
 11
84.08131
 21
32.710819
 31
0.0
  0
LINE
  5
925
100
AcDbEntity
  8
MURO-02
100
AcDbLine
 10
84.18131
 20
31.910819
 30
0.0
 11
84.18131
 21
32.710819
 31
0.0
  0
LINE
  5
926
100
AcDbEntity
  8
EQUIPAMIENTO
100
AcDbLine
 10
84.18131
 20
30.910819
 30
0.0
 11
84.58131
 21
30.910819
 31
0.0
  0
LINE
  5
927
100
AcDbEntity
  8
EQUIPAMIENTO
100
AcDbLine
 10
84.18131
 20
31.910819
 30
0.0
 11
84.58131
 21
31.910819
 31
0.0
  0
LINE
  5
928
100
AcDbEntity
  8
MURO-02
100
AcDbLine
 10
84.18131
 20
31.910819
 30
0.0
 11
84.08131
 21
31.910819
 31
0.0
  0
LINE
  5
929
100
AcDbEntity
  8
MURO-02
100
AcDbLine
 10
84.18131
 20
30.910819
 30
0.0
 11
84.08131
 21
30.910819
 31
0.0
  0
LINE
  5
92A
100
AcDbEntity
  8
ESCALERA
100
AcDbLine
 10
89.78131
 20
31.310819
 30
0.0
 11
88.28131
 21
29.910819
 31
0.0
  0
LINE
  5
92B
100
AcDbEntity
  8
ESCALERA
100
AcDbLine
 10
88.28131
 20
29.910819
 30
0.0
 11
88.28131
 21
32.710819
 31
0.0
  0
LINE
  5
92C
100
AcDbEntity
  8
ESCALERA
100
AcDbLine
 10
88.53131
 20
29.910819
 30
0.0
 11
88.53131
 21
32.710819
 31
0.0
  0
LINE
  5
92D
100
AcDbEntity
  8
ESCALERA
100
AcDbLine
 10
88.78131
 20
29.910819
 30
0.0
 11
88.78131
 21
32.710819
 31
0.0
  0
LINE
  5
92E
100
AcDbEntity
  8
ESCALERA
100
AcDbLine
 10
89.03131
 20
29.910819
 30
0.0
 11
89.03131
 21
32.710819
 31
0.0
  0
LINE
  5
92F
100
AcDbEntity
  8
ESCALERA
100
AcDbLine
 10
89.28131
 20
29.910819
 30
0.0
 11
89.28131
 21
32.710819
 31
0.0
  0
LINE
  5
930
100
AcDbEntity
  8
ESCALERA
100
AcDbLine
 10
89.53131
 20
29.910819
 30
0.0
 11
89.53131
 21
32.710819
 31
0.0
  0
LINE
  5
931
100
AcDbEntity
  8
ESCALERA
100
AcDbLine
 10
89.78131
 20
29.910819
 30
0.0
 11
89.78131
 21
32.710819
 31
0.0
  0
LINE
  5
932
100
AcDbEntity
  8
ESCALERA
100
AcDbLine
 10
88.28131
 20
29.960819
 30
0.0
 11
89.78131
 21
29.960819
 31
0.0
  0
LINE
  5
933
100
AcDbEntity
  8
ESCALERA
100
AcDbLine
 10
88.28131
 20
29.910819
 30
0.0
 11
89.38131
 21
29.910819
 31
0.0
  0
CIRCLE
  5
934
100
AcDbEntity
  8
EQUIPAMIENTO
100
AcDbCircle
 10
87.391643
 20
28.232033
 30
0.0
 40
1.093408
  0
INSERT
  5
935
100
AcDbEntity
  8
ESTRUCTURA
100
AcDbBlockReference
  2
COLUMNA
 10
87.88131
 20
26.410819
 30
0.0
  0
LINE
  5
936
100
AcDbEntity
  8
EQUIPAMIENTO
100
AcDbLine
 10
89.78131
 20
29.910819
 30
0.0
 11
89.38131
 21
29.910819
 31
0.0
  0
LINE
  5
937
100
AcDbEntity
  8
MURO-02
100
AcDbLine
 10
89.98131
 20
29.910819
 30
0.0
 11
89.78131
 21
29.910819
 31
0.0
  0
LINE
  5
938
100
AcDbEntity
  8
ESCALERA
100
AcDbLine
 10
88.28131
 20
32.710819
 30
0.0
 11
89.78131
 21
31.310819
 31
0.0
  0
LINE
  5
939
100
AcDbEntity
  8
ESCALERA
100
AcDbLine
 10
88.28131
 20
32.660819
 30
0.0
 11
89.78131
 21
32.660819
 31
0.0
  0
INSERT
  5
93A
100
AcDbEntity
  8
ESTRUCTURA
100
AcDbBlockReference
  2
COLUMNA
 10
87.88131
 20
32.010819
 30
0.0
  0
LINE
  5
93B
100
AcDbEntity
  8
MURO-02
100
AcDbLine
 10
89.98131
 20
32.710819
 30
0.0
 11
89.98131
 21
32.910819
 31
0.0
  0
CIRCLE
  5
93C
100
AcDbEntity
  8
EQUIPAMIENTO
100
AcDbCircle
 10
93.48131
 20
20.810819
 30
0.0
 40
0.7
  0
INSERT
  5
93D
100
AcDbEntity
  8
ESTRUCTURA
100
AcDbBlockReference
  2
COLUMNA
 10
93.48131
 20
20.810819
 30
0.0
  0
INSERT
  5
93E
100
AcDbEntity
  8
ESTRUCTURA
100
AcDbBlockReference
  2
COLUMNA
 10
99.08131
 20
20.810819
 30
0.0
  0
INSERT
  5
93F
100
AcDbEntity
  8
ESTRUCTURA
100
AcDbBlockReference
  2
COLUMNA
 10
93.48131
 20
26.410819
 30
0.0
  0
LINE
  5
940
100
AcDbEntity
  8
CARPINTERIA
100
AcDbLine
 10
95.28131
 20
33.260819
 30
0.0
 11
93.08131
 21
33.260819
 31
0.0
  0
LINE
  5
941
100
AcDbEntity
  8
CARPINTERIA
100
AcDbLine
 10
95.33131
 20
33.210819
 30
0.0
 11
93.03131
 21
33.210819
 31
0.0
  0
INSERT
  5
942
100
AcDbEntity
  8
ESTRUCTURA
100
AcDbBlockReference
  2
COLUMNA
 10
93.48131
 20
32.010819
 30
0.0
  0
INSERT
  5
943
100
AcDbEntity
  8
ESTRUCTURA
100
AcDbBlockReference
  2
COLUMNA
 10
99.08131
 20
26.410819
 30
0.0
  0
INSERT
  5
944
100
AcDbEntity
  8
ESTRUCTURA
100
AcDbBlockReference
  2
COLUMNA
 10
99.08131
 20
32.010819
 30
0.0
  0
LINE
  5
946
100
AcDbEntity
  8
SOLADO
100
AcDbLine
 10
95.33131
 20
37.946347
 30
0.0
 11
105.729517
 21
35.650584
 31
0.0
  0
LINE
  5
947
100
AcDbEntity
  8
SOLADO
100
AcDbLine
 10
105.009901
 20
78.670536
 30
0.0
 11
94.58131
 21
75.021594
 31
0.0
  0
LINE
  5
948
100
AcDbEntity
  8
SOLADO
100
AcDbLine
 10
105.038635
 20
78.892479
 30
0.0
 11
101.173175
 21
49.035819
 31
0.0
  0
LINE
  5
949
100
AcDbEntity
  8
SOLADO
100
AcDbLine
 10
101.173175
 20
49.035819
 30
0.0
 11
106.591484
 21
49.035819
 31
0.0
  0
LINE
  5
94A
100
AcDbEntity
  8
SOLADO
100
AcDbLine
 10
109.378014
 20
80.410819
 30
0.0
 11
94.58131
 21
75.233484
 31
0.0
  0
LINE
  5
96B
100
AcDbEntity
  8
CARPINTERIA
100
AcDbLine
 10
94.53131
 20
38.122974
 30
0.0
 11
94.53131
 21
75.163534
 31
0.0
  0
LINE
  5
96C
100
AcDbEntity
  8
CARPINTERIA
100
AcDbLine
 10
94.58131
 20
38.111935
 30
0.0
 11
94.58131
 21
75.233484
 31
0.0
  0
LINE
  5
96D
100
AcDbEntity
  8
SOLADO
100
AcDbLine
 10
95.33131
 20
75.284018
 30
0.0
 11
95.33131
 21
37.946347
 31
0.0
  0
LINE
  5
96E
100
AcDbEntity
  8
SOLADO
100
AcDbLine
 10
80.755247
 20
34.913321
 30
0.0
 11
87.301309
 21
36.387755
 31
0.0
  0
LINE
  5
96F
100
AcDbEntity
  8
SOLADO
100
AcDbLine
 10
75.045988
 20
42.425031
 30
0.0
 11
87.301309
 21
39.719246
 31
0.0
  0
LINE
  5
970
100
AcDbEntity
  8
SOLADO
100
AcDbLine
 10
78.88131
 20
37.310819
 30
0.0
 11
87.301309
 21
37.310819
 31
0.0
  0
LINE
  5
971
100
AcDbEntity
  8
MURO-02
100
AcDbLine
 10
79.38131
 20
42.710819
 30
0.0
 11
84.88131
 21
42.710819
 31
0.0
  0
LINE
  5
972
100
AcDbEntity
  8
EQUIPAMIENTO
100
AcDbLine
 10
80.18131
 20
51.710819
 30
0.0
 11
84.68131
 21
51.710819
 31
0.0
  0
LINE
  5
973
100
AcDbEntity
  8
EQUIPAMIENTO
100
AcDbLine
 10
71.28131
 20
55.160819
 30
0.0
 11
84.68131
 21
55.160819
 31
0.0
  0
LINE
  5
974
100
AcDbEntity
  8
EQUIPAMIENTO
100
AcDbLine
 10
72.08131
 20
54.260819
 30
0.0
 11
83.78131
 21
54.260819
 31
0.0
  0
LINE
  5
975
100
AcDbEntity
  8
EQUIPAMIENTO
100
AcDbLine
 10
72.08131
 20
53.360819
 30
0.0
 11
83.78131
 21
53.360819
 31
0.0
  0
LINE
  5
976
100
AcDbEntity
  8
EQUIPAMIENTO
100
AcDbLine
 10
72.08131
 20
52.460819
 30
0.0
 11
83.78131
 21
52.460819
 31
0.0
  0
LINE
  5
977
100
AcDbEntity
  8
EQUIPAMIENTO
100
AcDbLine
 10
80.18131
 20
50.810819
 30
0.0
 11
84.68131
 21
50.810819
 31
0.0
  0
LINE
  5
978
100
AcDbEntity
  8
EQUIPAMIENTO
100
AcDbLine
 10
80.18131
 20
49.910819
 30
0.0
 11
84.68131
 21
49.910819
 31
0.0
  0
LINE
  5
979
100
AcDbEntity
  8
EQUIPAMIENTO
100
AcDbLine
 10
80.18131
 20
49.110819
 30
0.0
 11
84.68131
 21
49.110819
 31
0.0
  0
LINE
  5
97A
100
AcDbEntity
  8
EQUIPAMIENTO
100
AcDbLine
 10
80.18131
 20
48.210819
 30
0.0
 11
84.68131
 21
48.210819
 31
0.0
  0
LINE
  5
97B
100
AcDbEntity
  8
EQUIPAMIENTO
100
AcDbLine
 10
80.18131
 20
47.310819
 30
0.0
 11
84.68131
 21
47.310819
 31
0.0
  0
LINE
  5
97C
100
AcDbEntity
  8
EQUIPAMIENTO
100
AcDbLine
 10
80.18131
 20
46.510819
 30
0.0
 11
84.68131
 21
46.510819
 31
0.0
  0
LINE
  5
97D
100
AcDbEntity
  8
EQUIPAMIENTO
100
AcDbLine
 10
80.18131
 20
45.610819
 30
0.0
 11
84.68131
 21
45.610819
 31
0.0
  0
LINE
  5
97E
100
AcDbEntity
  8
EQUIPAMIENTO
100
AcDbLine
 10
80.18131
 20
44.710819
 30
0.0
 11
84.68131
 21
44.710819
 31
0.0
  0
LINE
  5
97F
100
AcDbEntity
  8
EQUIPAMIENTO
100
AcDbLine
 10
80.18131
 20
43.810819
 30
0.0
 11
84.68131
 21
43.810819
 31
0.0
  0
LINE
  5
980
100
AcDbEntity
  8
SOLADO
100
AcDbLine
 10
71.08131
 20
56.510819
 30
0.0
 11
84.88131
 21
56.510819
 31
0.0
  0
LINE
  5
981
100
AcDbEntity
  8
SOLADO
100
AcDbLine
 10
71.08131
 20
42.910819
 30
0.0
 11
84.88131
 21
42.910819
 31
0.0
  0
LINE
  5
982
100
AcDbEntity
  8
SOLADO
100
AcDbLine
 10
71.08131
 20
56.210819
 30
0.0
 11
84.88131
 21
56.210819
 31
0.0
  0
LINE
  5
983
100
AcDbEntity
  8
SOLADO
100
AcDbLine
 10
71.08131
 20
56.210819
 30
0.0
 11
84.88131
 21
56.210819
 31
0.0
  0
LINE
  5
984
100
AcDbEntity
  8
SOLADO
100
AcDbLine
 10
71.08131
 20
42.910819
 30
0.0
 11
84.88131
 21
42.910819
 31
0.0
  0
LINE
  5
985
100
AcDbEntity
  8
SOLADO
100
AcDbLine
 10
71.08131
 20
56.510819
 30
0.0
 11
84.88131
 21
56.510819
 31
0.0
  0
LINE
  5
986
100
AcDbEntity
  8
SOLADO
100
AcDbLine
 10
71.08131
 20
56.510819
 30
0.0
 11
84.88131
 21
56.510819
 31
0.0
  0
LINE
  5
987
100
AcDbEntity
  8
SOLADO
100
AcDbLine
 10
71.08131
 20
42.910819
 30
0.0
 11
84.88131
 21
42.910819
 31
0.0
  0
LINE
  5
988
100
AcDbEntity
  8
SOLADO
100
AcDbLine
 10
71.08131
 20
56.210819
 30
0.0
 11
84.88131
 21
56.210819
 31
0.0
  0
LINE
  5
989
100
AcDbEntity
  8
SOLADO
100
AcDbLine
 10
71.08131
 20
56.210819
 30
0.0
 11
84.88131
 21
56.210819
 31
0.0
  0
LINE
  5
98A
100
AcDbEntity
  8
SOLADO
100
AcDbLine
 10
71.08131
 20
42.910819
 30
0.0
 11
84.88131
 21
42.910819
 31
0.0
  0
LINE
  5
98B
100
AcDbEntity
  8
SOLADO
100
AcDbLine
 10
71.08131
 20
56.510819
 30
0.0
 11
84.88131
 21
56.510819
 31
0.0
  0
LINE
  5
98C
100
AcDbEntity
  8
SOLADO
100
AcDbLine
 10
71.08131
 20
56.510819
 30
0.0
 11
84.88131
 21
56.510819
 31
0.0
  0
LINE
  5
98D
100
AcDbEntity
  8
SOLADO
100
AcDbLine
 10
71.08131
 20
42.910819
 30
0.0
 11
84.88131
 21
42.910819
 31
0.0
  0
LINE
  5
98E
100
AcDbEntity
  8
SOLADO
100
AcDbLine
 10
71.08131
 20
56.210819
 30
0.0
 11
84.88131
 21
56.210819
 31
0.0
  0
LINE
  5
98F
100
AcDbEntity
  8
SOLADO
100
AcDbLine
 10
71.08131
 20
56.210819
 30
0.0
 11
84.88131
 21
56.210819
 31
0.0
  0
LINE
  5
990
100
AcDbEntity
  8
SOLADO
100
AcDbLine
 10
71.08131
 20
42.910819
 30
0.0
 11
84.88131
 21
42.910819
 31
0.0
  0
LINE
  5
991
100
AcDbEntity
  8
SOLADO
100
AcDbLine
 10
71.08131
 20
56.510819
 30
0.0
 11
84.88131
 21
56.510819
 31
0.0
  0
LINE
  5
992
100
AcDbEntity
  8
SOLADO
100
AcDbLine
 10
71.08131
 20
56.510819
 30
0.0
 11
84.88131
 21
56.510819
 31
0.0
  0
LINE
  5
993
100
AcDbEntity
  8
SOLADO
100
AcDbLine
 10
71.08131
 20
42.910819
 30
0.0
 11
84.88131
 21
42.910819
 31
0.0
  0
LINE
  5
994
100
AcDbEntity
  8
SOLADO
100
AcDbLine
 10
71.08131
 20
56.210819
 30
0.0
 11
84.88131
 21
56.210819
 31
0.0
  0
LINE
  5
995
100
AcDbEntity
  8
MURO-02
100
AcDbLine
 10
71.28131
 20
56.010819
 30
0.0
 11
84.68131
 21
56.010819
 31
0.0
  0
LINE
  5
996
100
AcDbEntity
  8
MURO-02
100
AcDbLine
 10
71.08131
 20
56.210819
 30
0.0
 11
84.88131
 21
56.210819
 31
0.0
  0
LINE
  5
997
100
AcDbEntity
  8
MURO-02
100
AcDbLine
 10
84.68131
 20
42.910819
 30
0.0
 11
79.48131
 21
42.910819
 31
0.0
  0
LINE
  5
998
100
AcDbEntity
  8
SOLADO
100
AcDbLine
 10
71.08131
 20
56.210819
 30
0.0
 11
84.88131
 21
56.210819
 31
0.0
  0
LINE
  5
999
100
AcDbEntity
  8
SOLADO
100
AcDbLine
 10
71.08131
 20
42.910819
 30
0.0
 11
84.88131
 21
42.910819
 31
0.0
  0
LINE
  5
99A
100
AcDbEntity
  8
SOLADO
100
AcDbLine
 10
71.08131
 20
56.510819
 30
0.0
 11
84.88131
 21
56.510819
 31
0.0
  0
LINE
  5
99B
100
AcDbEntity
  8
EQUIPAMIENTO
100
AcDbLine
 10
72.08131
 20
51.710819
 30
0.0
 11
72.08131
 21
49.910819
 31
0.0
  0
LINE
  5
99C
100
AcDbEntity
  8
EQUIPAMIENTO
100
AcDbLine
 10
74.78131
 20
51.710819
 30
0.0
 11
74.78131
 21
49.910819
 31
0.0
  0
LINE
  5
99D
100
AcDbEntity
  8
EQUIPAMIENTO
100
AcDbLine
 10
73.88131
 20
51.710819
 30
0.0
 11
73.88131
 21
49.910819
 31
0.0
  0
LINE
  5
99E
100
AcDbEntity
  8
EQUIPAMIENTO
100
AcDbLine
 10
72.98131
 20
51.710819
 30
0.0
 11
72.98131
 21
49.910819
 31
0.0
  0
LINE
  5
99F
100
AcDbEntity
  8
EQUIPAMIENTO
100
AcDbLine
 10
80.18131
 20
51.710819
 30
0.0
 11
80.18131
 21
49.910819
 31
0.0
  0
LINE
  5
9A0
100
AcDbEntity
  8
MURO-02
100
AcDbLine
 10
71.28131
 20
50.210819
 30
0.0
 11
71.28131
 21
51.810819
 31
0.0
  0
LINE
  5
9A1
100
AcDbEntity
  8
MURO-02
100
AcDbLine
 10
76.68131
 20
51.710819
 30
0.0
 11
76.68131
 21
50.210819
 31
0.0
  0
LINE
  5
9A2
100
AcDbEntity
  8
MURO-02
100
AcDbLine
 10
79.48131
 20
51.710819
 30
0.0
 11
79.48131
 21
49.610819
 31
0.0
  0
LINE
  5
9A3
100
AcDbEntity
  8
MURO-02
100
AcDbLine
 10
71.08131
 20
49.610819
 30
0.0
 11
71.08131
 21
52.110819
 31
0.0
  0
LINE
  5
9A4
100
AcDbEntity
  8
ESCALERA
100
AcDbLine
 10
59.38131
 20
51.260819
 30
0.0
 11
71.08131
 21
50.010819
 31
0.0
  0
LINE
  5
9A5
100
AcDbEntity
  8
MURO-02
100
AcDbLine
 10
66.48131
 20
44.410819
 30
0.0
 11
70.08131
 21
44.410819
 31
0.0
  0
LINE
  5
9A6
100
AcDbEntity
  8
MURO-02
100
AcDbLine
 10
70.08131
 20
44.310819
 30
0.0
 11
66.08131
 21
44.310819
 31
0.0
  0
LINE
  5
9A7
100
AcDbEntity
  8
EQUIPAMIENTO
100
AcDbLine
 10
63.58131
 20
38.010819
 30
0.0
 11
63.58131
 21
40.010819
 31
0.0
  0
LINE
  5
9A8
100
AcDbEntity
  8
EQUIPAMIENTO
100
AcDbLine
 10
61.98131
 20
38.010819
 30
0.0
 11
61.98131
 21
40.010819
 31
0.0
  0
INSERT
  5
9A9
100
AcDbEntity
  8
EQUIPAMIENTO
100
AcDbBlockReference
  2
MUEBLE5
 10
59.88131
 20
40.010819
 30
0.0
  0
INSERT
  5
9AA
100
AcDbEntity
  8
ESTRUCTURA
100
AcDbBlockReference
  2
COLUMNA
 10
59.88131
 20
37.610819
 30
0.0
  0
LINE
  5
9AB
100
AcDbEntity
  8
EQUIPAMIENTO
100
AcDbLine
 10
61.98131
 20
38.010819
 30
0.0
 11
63.58131
 21
38.010819
 31
0.0
  0
LINE
  5
9AC
100
AcDbEntity
  8
EQUIPAMIENTO
100
AcDbLine
 10
59.68131
 20
42.210819
 30
0.0
 11
59.68131
 21
41.810819
 31
0.0
  0
LINE
  5
9AD
100
AcDbEntity
  8
EQUIPAMIENTO
100
AcDbLine
 10
61.98131
 20
40.010819
 30
0.0
 11
63.58131
 21
40.010819
 31
0.0
  0
LINE
  5
9AE
100
AcDbEntity
  8
EQUIPAMIENTO
100
AcDbLine
 10
61.68131
 20
42.210819
 30
0.0
 11
61.68131
 21
41.810819
 31
0.0
  0
LINE
  5
9AF
100
AcDbEntity
  8
EQUIPAMIENTO
100
AcDbLine
 10
63.68131
 20
42.210819
 30
0.0
 11
63.68131
 21
41.810819
 31
0.0
  0
INSERT
  5
9B0
100
AcDbEntity
  8
EQUIPAMIENTO
100
AcDbBlockReference
  2
MUEBLE5
 10
65.48131
 20
40.010819
 30
0.0
  0
INSERT
  5
9B1
100
AcDbEntity
  8
ESTRUCTURA
100
AcDbBlockReference
  2
COLUMNA
 10
65.48131
 20
37.610819
 30
0.0
  0
LINE
  5
9B2
100
AcDbEntity
  8
EQUIPAMIENTO
100
AcDbLine
 10
65.68131
 20
42.210819
 30
0.0
 11
65.68131
 21
41.810819
 31
0.0
  0
LINE
  5
9B3
100
AcDbEntity
  8
EQUIPAMIENTO
100
AcDbLine
 10
67.68131
 20
42.210819
 30
0.0
 11
67.68131
 21
41.810819
 31
0.0
  0
LINE
  5
9B4
100
AcDbEntity
  8
MURO-02
100
AcDbLine
 10
65.08131
 20
44.310819
 30
0.0
 11
60.08131
 21
44.310819
 31
0.0
  0
LINE
  5
9B5
100
AcDbEntity
  8
MURO-02
100
AcDbLine
 10
65.08131
 20
44.410819
 30
0.0
 11
61.73131
 21
44.410819
 31
0.0
  0
LINE
  5
9B6
100
AcDbEntity
  8
MURO-02
100
AcDbLine
 10
61.63131
 20
44.410819
 30
0.0
 11
61.63131
 21
49.610819
 31
0.0
  0
LINE
  5
9B7
100
AcDbEntity
  8
MURO-02
100
AcDbLine
 10
61.73131
 20
44.410819
 30
0.0
 11
61.73131
 21
49.610819
 31
0.0
  0
LINE
  5
9B8
100
AcDbEntity
  8
MURO-02
100
AcDbLine
 10
61.63131
 20
44.410819
 30
0.0
 11
60.08131
 21
44.410819
 31
0.0
  0
LINE
  5
9B9
100
AcDbEntity
  8
MURO-02
100
AcDbLine
 10
60.08131
 20
44.310819
 30
0.0
 11
60.08131
 21
44.410819
 31
0.0
  0
LINE
  5
9BA
100
AcDbEntity
  8
MURO-02
100
AcDbLine
 10
59.08131
 20
44.310819
 30
0.0
 11
59.08131
 21
44.410819
 31
0.0
  0
INSERT
  5
9BB
100
AcDbEntity
  8
ESTRUCTURA
100
AcDbBlockReference
  2
COLUMNA
 10
59.88131
 20
43.210819
 30
0.0
  0
INSERT
  5
9BC
100
AcDbEntity
  8
ESTRUCTURA
100
AcDbBlockReference
  2
COLUMNA
 10
59.88131
 20
48.810819
 30
0.0
  0
LINE
  5
9BD
100
AcDbEntity
  8
MURO-02
100
AcDbLine
 10
61.73131
 20
49.610819
 30
0.0
 11
61.63131
 21
49.610819
 31
0.0
  0
LINE
  5
9BE
100
AcDbEntity
  8
MURO-02
100
AcDbLine
 10
66.38131
 20
44.410819
 30
0.0
 11
66.38131
 21
49.610819
 31
0.0
  0
LINE
  5
9BF
100
AcDbEntity
  8
MURO-02
100
AcDbLine
 10
66.48131
 20
44.410819
 30
0.0
 11
66.48131
 21
49.610819
 31
0.0
  0
LINE
  5
9C0
100
AcDbEntity
  8
MURO-02
100
AcDbLine
 10
65.08131
 20
44.310819
 30
0.0
 11
65.08131
 21
44.410819
 31
0.0
  0
INSERT
  5
9C1
100
AcDbEntity
  8
ESTRUCTURA
100
AcDbBlockReference
  2
COLUMNA
 10
65.48131
 20
43.210819
 30
0.0
  0
LINE
  5
9C2
100
AcDbEntity
  8
MURO-02
100
AcDbLine
 10
66.08131
 20
44.310819
 30
0.0
 11
66.08131
 21
44.410819
 31
0.0
  0
LINE
  5
9C3
100
AcDbEntity
  8
MURO-02
100
AcDbLine
 10
66.08131
 20
44.410819
 30
0.0
 11
66.38131
 21
44.410819
 31
0.0
  0
INSERT
  5
9C4
100
AcDbEntity
  8
ESTRUCTURA
100
AcDbBlockReference
  2
COLUMNA
 10
65.48131
 20
48.810819
 30
0.0
  0
LINE
  5
9C5
100
AcDbEntity
  8
MURO-02
100
AcDbLine
 10
66.38131
 20
49.610819
 30
0.0
 11
66.48131
 21
49.610819
 31
0.0
  0
LINE
  5
9C6
100
AcDbEntity
  8
EQUIPAMIENTO
100
AcDbLine
 10
71.28131
 20
44.310819
 30
0.0
 11
71.28131
 21
42.110819
 31
0.0
  0
LINE
  5
9C7
100
AcDbEntity
  8
SOLADO
100
AcDbLine
 10
74.98131
 20
44.910819
 30
0.0
 11
74.98131
 21
37.310819
 31
0.0
  0
LINE
  5
9C8
100
AcDbEntity
  8
EQUIPAMIENTO
100
AcDbLine
 10
80.18131
 20
43.810819
 30
0.0
 11
80.18131
 21
42.910819
 31
0.0
  0
LINE
  5
9C9
100
AcDbEntity
  8
MURO-02
100
AcDbLine
 10
79.38131
 20
46.410819
 30
0.0
 11
79.38131
 21
42.710819
 31
0.0
  0
LINE
  5
9CA
100
AcDbEntity
  8
MURO-02
100
AcDbLine
 10
79.48131
 20
48.210819
 30
0.0
 11
79.48131
 21
42.910819
 31
0.0
  0
LINE
  5
9CB
100
AcDbEntity
  8
MURO-02
100
AcDbLine
 10
78.78131
 20
37.210819
 30
0.0
 11
75.08131
 21
37.210819
 31
0.0
  0
LINE
  5
9CC
100
AcDbEntity
  8
MURO-02
100
AcDbLine
 10
78.88131
 20
37.310819
 30
0.0
 11
74.98131
 21
37.310819
 31
0.0
  0
LINE
  5
9CD
100
AcDbEntity
  8
MURO-02
100
AcDbLine
 10
76.78131
 20
42.710819
 30
0.0
 11
74.98131
 21
42.710819
 31
0.0
  0
LINE
  5
9CE
100
AcDbEntity
  8
MURO-02
100
AcDbLine
 10
76.78131
 20
42.910819
 30
0.0
 11
74.98131
 21
42.910819
 31
0.0
  0
LINE
  5
9CF
100
AcDbEntity
  8
PROYECCION
100
AcDbLine
 10
71.28131
 20
37.310819
 30
0.0
 11
74.98131
 21
37.310819
 31
0.0
  0
LINE
  5
9D0
100
AcDbEntity
  8
MURO-02
100
AcDbLine
 10
75.08131
 20
37.210819
 30
0.0
 11
75.08131
 21
35.827485
 31
0.0
  0
LINE
  5
9D1
100
AcDbEntity
  8
MURO-02
100
AcDbLine
 10
74.98131
 20
37.310819
 30
0.0
 11
74.98131
 21
34.844152
 31
0.0
  0
LINE
  5
9D2
100
AcDbEntity
  8
MURO-02
100
AcDbLine
 10
75.28131
 20
35.727485
 30
0.0
 11
75.08131
 21
35.727485
 31
0.0
  0
LINE
  5
9D3
100
AcDbEntity
  8
MURO-02
100
AcDbLine
 10
75.28131
 20
35.827485
 30
0.0
 11
75.08131
 21
35.827485
 31
0.0
  0
LINE
  5
9D4
100
AcDbEntity
  8
MURO-02
100
AcDbLine
 10
75.28131
 20
35.827485
 30
0.0
 11
75.28131
 21
35.727485
 31
0.0
  0
LINE
  5
9D5
100
AcDbEntity
  8
MURO-02
100
AcDbLine
 10
75.08131
 20
34.844152
 30
0.0
 11
74.98131
 21
34.844152
 31
0.0
  0
LINE
  5
9D6
100
AcDbEntity
  8
MURO-02
100
AcDbLine
 10
75.08131
 20
35.727485
 30
0.0
 11
75.08131
 21
34.844152
 31
0.0
  0
LINE
  5
9D7
100
AcDbEntity
  8
MURO-02
100
AcDbLine
 10
71.28131
 20
42.110819
 30
0.0
 11
71.08131
 21
42.110819
 31
0.0
  0
LINE
  5
9D8
100
AcDbEntity
  8
MURO-02
100
AcDbLine
 10
74.98131
 20
42.910819
 30
0.0
 11
74.98131
 21
42.710819
 31
0.0
  0
LINE
  5
9D9
100
AcDbEntity
  8
MURO-02
100
AcDbLine
 10
78.78131
 20
35.727485
 30
0.0
 11
76.58131
 21
35.727485
 31
0.0
  0
LINE
  5
9DA
100
AcDbEntity
  8
MURO-02
100
AcDbLine
 10
78.78131
 20
35.827485
 30
0.0
 11
76.28131
 21
35.827485
 31
0.0
  0
LINE
  5
9DB
100
AcDbEntity
  8
MURO-02
100
AcDbLine
 10
76.28131
 20
35.827485
 30
0.0
 11
76.28131
 21
35.727485
 31
0.0
  0
LINE
  5
9DC
100
AcDbEntity
  8
MURO-02
100
AcDbLine
 10
76.48131
 20
35.727485
 30
0.0
 11
76.28131
 21
35.727485
 31
0.0
  0
LINE
  5
9DD
100
AcDbEntity
  8
MURO-02
100
AcDbLine
 10
76.58131
 20
35.727485
 30
0.0
 11
76.58131
 21
35.394152
 31
0.0
  0
LINE
  5
9DE
100
AcDbEntity
  8
MURO-02
100
AcDbLine
 10
76.48131
 20
35.727485
 30
0.0
 11
76.48131
 21
35.394152
 31
0.0
  0
LINE
  5
9DF
100
AcDbEntity
  8
MURO-02
100
AcDbLine
 10
76.58131
 20
35.394152
 30
0.0
 11
76.48131
 21
35.394152
 31
0.0
  0
INSERT
  5
9E0
100
AcDbEntity
  8
ESTRUCTURA
100
AcDbBlockReference
  2
COLUMNA
 10
76.68131
 20
37.610819
 30
0.0
  0
LINE
  5
9E1
100
AcDbEntity
  8
MURO-02
100
AcDbLine
 10
78.78131
 20
37.210819
 30
0.0
 11
78.78131
 21
35.827485
 31
0.0
  0
LINE
  5
9E2
100
AcDbEntity
  8
MURO-02
100
AcDbLine
 10
76.78131
 20
42.910819
 30
0.0
 11
76.78131
 21
42.710819
 31
0.0
  0
LINE
  5
9E3
100
AcDbEntity
  8
ESCALERA
100
AcDbLine
 10
76.03131
 20
44.910819
 30
0.0
 11
74.98131
 21
44.910819
 31
0.0
  0
LINE
  5
9E4
100
AcDbEntity
  8
ESCALERA
100
AcDbLine
 10
74.98131
 20
46.885819
 30
0.0
 11
76.23131
 21
46.510819
 31
0.0
  0
LINE
  5
9E5
100
AcDbEntity
  8
ESCALERA
100
AcDbLine
 10
76.23131
 20
47.260819
 30
0.0
 11
74.98131
 21
46.885819
 31
0.0
  0
LINE
  5
9E6
100
AcDbEntity
  8
ESCALERA
100
AcDbLine
 10
76.23131
 20
47.635819
 30
0.0
 11
74.98131
 21
47.260819
 31
0.0
  0
LINE
  5
9E7
100
AcDbEntity
  8
ESCALERA
100
AcDbLine
 10
74.98131
 20
48.010819
 30
0.0
 11
76.23131
 21
47.635819
 31
0.0
  0
LINE
  5
9E8
100
AcDbEntity
  8
ESCALERA
100
AcDbLine
 10
74.98131
 20
47.235819
 30
0.0
 11
76.23131
 21
47.235819
 31
0.0
  0
LINE
  5
9E9
100
AcDbEntity
  8
ESCALERA
100
AcDbLine
 10
74.98131
 20
47.285819
 30
0.0
 11
76.23131
 21
47.285819
 31
0.0
  0
LINE
  5
9EA
100
AcDbEntity
  8
ESCALERA
100
AcDbLine
 10
74.98131
 20
46.560819
 30
0.0
 11
76.23131
 21
46.560819
 31
0.0
  0
LINE
  5
9EB
100
AcDbEntity
  8
ESCALERA
100
AcDbLine
 10
74.98131
 20
47.960819
 30
0.0
 11
76.68131
 21
47.960819
 31
0.0
  0
LINE
  5
9EC
100
AcDbEntity
  8
ESCALERA
100
AcDbLine
 10
74.98131
 20
47.260819
 30
0.0
 11
76.23131
 21
47.260819
 31
0.0
  0
LINE
  5
9ED
100
AcDbEntity
  8
ESCALERA
100
AcDbLine
 10
74.98131
 20
48.010819
 30
0.0
 11
76.68131
 21
48.010819
 31
0.0
  0
LINE
  5
9EE
100
AcDbEntity
  8
MURO-02
100
AcDbLine
 10
75.68131
 20
49.910819
 30
0.0
 11
71.28131
 21
49.910819
 31
0.0
  0
LINE
  5
9EF
100
AcDbEntity
  8
MURO-02
100
AcDbLine
 10
75.68131
 20
49.810819
 30
0.0
 11
71.28131
 21
49.810819
 31
0.0
  0
LINE
  5
9F0
100
AcDbEntity
  8
MURO-02
100
AcDbLine
 10
76.68131
 20
46.510819
 30
0.0
 11
73.28131
 21
46.510819
 31
0.0
  0
LINE
  5
9F1
100
AcDbEntity
  8
MURO-02
100
AcDbLine
 10
76.78131
 20
46.410819
 30
0.0
 11
73.28131
 21
46.410819
 31
0.0
  0
LINE
  5
9F2
100
AcDbEntity
  8
ESCALERA
100
AcDbLine
 10
74.98131
 20
48.010819
 30
0.0
 11
74.98131
 21
46.510819
 31
0.0
  0
LINE
  5
9F3
100
AcDbEntity
  8
ESCALERA
100
AcDbLine
 10
75.23131
 20
48.010819
 30
0.0
 11
75.23131
 21
46.510819
 31
0.0
  0
LINE
  5
9F4
100
AcDbEntity
  8
MURO-02
100
AcDbLine
 10
71.28131
 20
46.510819
 30
0.0
 11
71.28131
 21
49.610819
 31
0.0
  0
LINE
  5
9F5
100
AcDbEntity
  8
MURO-02
100
AcDbLine
 10
71.08131
 20
44.310819
 30
0.0
 11
71.08131
 21
49.510819
 31
0.0
  0
LINE
  5
9F6
100
AcDbEntity
  8
MURO-02
100
AcDbLine
 10
71.28131
 20
44.310819
 30
0.0
 11
71.28131
 21
46.410819
 31
0.0
  0
LINE
  5
9F7
100
AcDbEntity
  8
MURO-02
100
AcDbLine
 10
71.28131
 20
44.310819
 30
0.0
 11
71.08131
 21
44.310819
 31
0.0
  0
LINE
  5
9F8
100
AcDbEntity
  8
MURO-02
100
AcDbLine
 10
70.08131
 20
44.410819
 30
0.0
 11
70.08131
 21
44.310819
 31
0.0
  0
LINE
  5
9F9
100
AcDbEntity
  8
MURO-02
100
AcDbLine
 10
72.28131
 20
46.410819
 30
0.0
 11
71.28131
 21
46.410819
 31
0.0
  0
LINE
  5
9FA
100
AcDbEntity
  8
MURO-02
100
AcDbLine
 10
72.28131
 20
46.510819
 30
0.0
 11
71.28131
 21
46.510819
 31
0.0
  0
LINE
  5
9FB
100
AcDbEntity
  8
MURO-02
100
AcDbLine
 10
72.28131
 20
46.510819
 30
0.0
 11
72.28131
 21
46.410819
 31
0.0
  0
LINE
  5
9FC
100
AcDbEntity
  8
ESCALERA
100
AcDbLine
 10
74.98131
 20
44.910819
 30
0.0
 11
74.98131
 21
46.410819
 31
0.0
  0
LINE
  5
9FD
100
AcDbEntity
  8
MURO-02
100
AcDbLine
 10
73.28131
 20
46.510819
 30
0.0
 11
73.28131
 21
46.410819
 31
0.0
  0
LINE
  5
9FE
100
AcDbEntity
  8
ESCALERA
100
AcDbLine
 10
71.03131
 20
49.610819
 30
0.0
 11
71.03131
 21
51.260819
 31
0.0
  0
LINE
  5
9FF
100
AcDbEntity
  8
MURO-02
100
AcDbLine
 10
71.08131
 20
49.610819
 30
0.0
 11
71.08131
 21
49.510819
 31
0.0
  0
LINE
  5
A00
100
AcDbEntity
  8
MURO-02
100
AcDbLine
 10
71.28131
 20
50.210819
 30
0.0
 11
71.28131
 21
50.010819
 31
0.0
  0
LINE
  5
A01
100
AcDbEntity
  8
MURO-02
100
AcDbLine
 10
71.28131
 20
49.910819
 30
0.0
 11
71.28131
 21
50.010819
 31
0.0
  0
LINE
  5
A02
100
AcDbEntity
  8
EQUIPAMIENTO
100
AcDbLine
 10
71.28131
 20
50.810819
 30
0.0
 11
72.08131
 21
50.810819
 31
0.0
  0
LINE
  5
A03
100
AcDbEntity
  8
MURO-02
100
AcDbLine
 10
71.28131
 20
49.610819
 30
0.0
 11
71.28131
 21
49.810819
 31
0.0
  0
LINE
  5
A04
100
AcDbEntity
  8
EQUIPAMIENTO
100
AcDbLine
 10
72.98131
 20
50.810819
 30
0.0
 11
74.78131
 21
50.810819
 31
0.0
  0
LINE
  5
A05
100
AcDbEntity
  8
ESCALERA
100
AcDbLine
 10
76.23131
 20
48.010819
 30
0.0
 11
76.23131
 21
46.510819
 31
0.0
  0
LINE
  5
A06
100
AcDbEntity
  8
ESCALERA
100
AcDbLine
 10
75.98131
 20
48.010819
 30
0.0
 11
75.98131
 21
46.510819
 31
0.0
  0
LINE
  5
A07
100
AcDbEntity
  8
ESCALERA
100
AcDbLine
 10
75.73131
 20
48.010819
 30
0.0
 11
75.73131
 21
46.510819
 31
0.0
  0
LINE
  5
A08
100
AcDbEntity
  8
ESCALERA
100
AcDbLine
 10
75.48131
 20
48.010819
 30
0.0
 11
75.48131
 21
46.510819
 31
0.0
  0
LINE
  5
A09
100
AcDbEntity
  8
MURO-02
100
AcDbLine
 10
76.78131
 20
48.010819
 30
0.0
 11
76.78131
 21
46.410819
 31
0.0
  0
LINE
  5
A0A
100
AcDbEntity
  8
MURO-02
100
AcDbLine
 10
76.68131
 20
48.410819
 30
0.0
 11
76.68131
 21
46.510819
 31
0.0
  0
LINE
  5
A0B
100
AcDbEntity
  8
MURO-02
100
AcDbLine
 10
79.38131
 20
48.010819
 30
0.0
 11
79.38131
 21
46.510819
 31
0.0
  0
LINE
  5
A0C
100
AcDbEntity
  8
PROYECCION
100
AcDbLine
 10
76.78131
 20
46.410819
 30
0.0
 11
79.38131
 21
46.410819
 31
0.0
  0
LINE
  5
A0D
100
AcDbEntity
  8
ESCALERA
100
AcDbLine
 10
75.910343
 20
45.273722
 30
0.0
 11
76.03131
 21
44.910819
 31
0.0
  0
LINE
  5
A0E
100
AcDbEntity
  8
ESCALERA
100
AcDbLine
 10
75.910343
 20
45.273722
 30
0.0
 11
76.78131
 21
44.910819
 31
0.0
  0
LINE
  5
A0F
100
AcDbEntity
  8
ESCALERA
100
AcDbLine
 10
76.03131
 20
46.410819
 30
0.0
 11
76.03131
 21
44.910819
 31
0.0
  0
LINE
  5
A10
100
AcDbEntity
  8
ESCALERA
100
AcDbLine
 10
76.28131
 20
46.410819
 30
0.0
 11
76.28131
 21
44.910819
 31
0.0
  0
LINE
  5
A11
100
AcDbEntity
  8
ESCALERA
100
AcDbLine
 10
76.53131
 20
46.410819
 30
0.0
 11
76.53131
 21
44.910819
 31
0.0
  0
LINE
  5
A12
100
AcDbEntity
  8
ESCALERA
100
AcDbLine
 10
76.78131
 20
46.410819
 30
0.0
 11
76.78131
 21
44.910819
 31
0.0
  0
LINE
  5
A13
100
AcDbEntity
  8
ESCALERA
100
AcDbLine
 10
76.03131
 20
44.960819
 30
0.0
 11
76.78131
 21
44.960819
 31
0.0
  0
LINE
  5
A14
100
AcDbEntity
  8
ESCALERA
100
AcDbLine
 10
76.03131
 20
44.910819
 30
0.0
 11
76.78131
 21
44.910819
 31
0.0
  0
LINE
  5
A15
100
AcDbEntity
  8
ESCALERA
100
AcDbLine
 10
75.683749
 20
45.953501
 30
0.0
 11
76.78131
 21
46.410819
 31
0.0
  0
LINE
  5
A16
100
AcDbEntity
  8
ESCALERA
100
AcDbLine
 10
75.547977
 20
46.360819
 30
0.0
 11
76.78131
 21
46.360819
 31
0.0
  0
LINE
  5
A17
100
AcDbEntity
  8
ESCALERA
100
AcDbLine
 10
75.53131
 20
46.410819
 30
0.0
 11
75.910343
 21
45.273722
 31
0.0
  0
ARC
  5
A18
100
AcDbEntity
  8
ESCALERA
100
AcDbCircle
 10
76.23131
 20
47.260819
 30
0.0
 40
0.025
100
AcDbArc
 50
270.0
 51
90.0
  0
LINE
  5
A19
100
AcDbEntity
  8
ESCALERA
100
AcDbLine
 10
75.78131
 20
46.410819
 30
0.0
 11
75.78131
 21
45.660819
 31
0.0
  0
LINE
  5
A1A
100
AcDbEntity
  8
EQUIPAMIENTO
100
AcDbLine
 10
80.18131
 20
46.510819
 30
0.0
 11
80.18131
 21
44.710819
 31
0.0
  0
LINE
  5
A1B
100
AcDbEntity
  8
MURO-02
100
AcDbLine
 10
79.38131
 20
46.510819
 30
0.0
 11
79.38131
 21
46.410819
 31
0.0
  0
LINE
  5
A1C
100
AcDbEntity
  8
EQUIPAMIENTO
100
AcDbLine
 10
77.08131
 20
48.260819
 30
0.0
 11
78.03131
 21
48.260819
 31
0.0
  0
LINE
  5
A1D
100
AcDbEntity
  8
EQUIPAMIENTO
100
AcDbLine
 10
77.08131
 20
49.510819
 30
0.0
 11
79.08131
 21
49.510819
 31
0.0
  0
LINE
  5
A1E
100
AcDbEntity
  8
EQUIPAMIENTO
100
AcDbLine
 10
77.08131
 20
48.410819
 30
0.0
 11
79.08131
 21
48.410819
 31
0.0
  0
LINE
  5
A1F
100
AcDbEntity
  8
EQUIPAMIENTO
100
AcDbLine
 10
77.08131
 20
48.160819
 30
0.0
 11
79.08131
 21
48.160819
 31
0.0
  0
LINE
  5
A20
100
AcDbEntity
  8
EQUIPAMIENTO
100
AcDbLine
 10
77.08131
 20
48.210819
 30
0.0
 11
79.08131
 21
48.210819
 31
0.0
  0
LINE
  5
A21
100
AcDbEntity
  8
EQUIPAMIENTO
100
AcDbLine
 10
76.88131
 20
49.960819
 30
0.0
 11
79.28131
 21
51.510819
 31
0.0
  0
LINE
  5
A22
100
AcDbEntity
  8
EQUIPAMIENTO
100
AcDbLine
 10
76.88131
 20
51.510819
 30
0.0
 11
79.28131
 21
49.960819
 31
0.0
  0
LINE
  5
A23
100
AcDbEntity
  8
MURO-02
100
AcDbLine
 10
79.28131
 20
49.760819
 30
0.0
 11
76.88131
 21
49.760819
 31
0.0
  0
LINE
  5
A24
100
AcDbEntity
  8
MURO-02
100
AcDbLine
 10
79.28131
 20
49.960819
 30
0.0
 11
76.88131
 21
49.960819
 31
0.0
  0
LINE
  5
A25
100
AcDbEntity
  8
MURO-02
100
AcDbLine
 10
76.88131
 20
51.510819
 30
0.0
 11
79.28131
 21
51.510819
 31
0.0
  0
LINE
  5
A26
100
AcDbEntity
  8
SOLADO
100
AcDbLine
 10
76.68131
 20
51.510819
 30
0.0
 11
79.48131
 21
51.510819
 31
0.0
  0
LINE
  5
A27
100
AcDbEntity
  8
SOLADO
100
AcDbLine
 10
76.68131
 20
47.510819
 30
0.0
 11
79.48131
 21
47.510819
 31
0.0
  0
LINE
  5
A28
100
AcDbEntity
  8
SOLADO
100
AcDbLine
 10
76.68131
 20
49.610819
 30
0.0
 11
79.48131
 21
49.610819
 31
0.0
  0
LINE
  5
A29
100
AcDbEntity
  8
SOLADO
100
AcDbLine
 10
76.68131
 20
49.610819
 30
0.0
 11
79.48131
 21
49.610819
 31
0.0
  0
LINE
  5
A2A
100
AcDbEntity
  8
SOLADO
100
AcDbLine
 10
76.68131
 20
47.510819
 30
0.0
 11
79.48131
 21
47.510819
 31
0.0
  0
LINE
  5
A2B
100
AcDbEntity
  8
SOLADO
100
AcDbLine
 10
76.68131
 20
51.510819
 30
0.0
 11
79.48131
 21
51.510819
 31
0.0
  0
LINE
  5
A2C
100
AcDbEntity
  8
EQUIPAMIENTO
100
AcDbLine
 10
76.93131
 20
49.510819
 30
0.0
 11
76.93131
 21
49.010819
 31
0.0
  0
LINE
  5
A2D
100
AcDbEntity
  8
EQUIPAMIENTO
100
AcDbLine
 10
77.08131
 20
49.510819
 30
0.0
 11
77.08131
 21
48.410819
 31
0.0
  0
LINE
  5
A2E
100
AcDbEntity
  8
EQUIPAMIENTO
100
AcDbLine
 10
76.83131
 20
49.510819
 30
0.0
 11
76.83131
 21
48.410819
 31
0.0
  0
LINE
  5
A2F
100
AcDbEntity
  8
EQUIPAMIENTO
100
AcDbLine
 10
76.88131
 20
49.510819
 30
0.0
 11
76.88131
 21
48.410819
 31
0.0
  0
LINE
  5
A30
100
AcDbEntity
  8
EQUIPAMIENTO
100
AcDbLine
 10
76.93131
 20
48.910819
 30
0.0
 11
76.93131
 21
48.410819
 31
0.0
  0
LINE
  5
A31
100
AcDbEntity
  8
MURO-02
100
AcDbLine
 10
76.88131
 20
48.410819
 30
0.0
 11
76.68131
 21
48.410819
 31
0.0
  0
LINE
  5
A32
100
AcDbEntity
  8
MURO-02
100
AcDbLine
 10
77.08131
 20
48.210819
 30
0.0
 11
77.08131
 21
48.010819
 31
0.0
  0
LINE
  5
A33
100
AcDbEntity
  8
MURO-02
100
AcDbLine
 10
77.08131
 20
48.010819
 30
0.0
 11
76.78131
 21
48.010819
 31
0.0
  0
LINE
  5
A34
100
AcDbEntity
  8
MURO-02
100
AcDbLine
 10
77.08131
 20
48.210819
 30
0.0
 11
76.88131
 21
48.210819
 31
0.0
  0
LINE
  5
A35
100
AcDbEntity
  8
MURO-02
100
AcDbLine
 10
76.88131
 20
48.410819
 30
0.0
 11
76.88131
 21
48.210819
 31
0.0
  0
LINE
  5
A36
100
AcDbEntity
  8
MURO-02
100
AcDbLine
 10
75.68131
 20
49.910819
 30
0.0
 11
75.68131
 21
49.810819
 31
0.0
  0
LINE
  5
A37
100
AcDbEntity
  8
MURO-02
100
AcDbLine
 10
76.88131
 20
49.510819
 30
0.0
 11
76.68131
 21
49.510819
 31
0.0
  0
LINE
  5
A38
100
AcDbEntity
  8
MURO-02
100
AcDbLine
 10
76.68131
 20
50.210819
 30
0.0
 11
76.68131
 21
50.010819
 31
0.0
  0
LINE
  5
A39
100
AcDbEntity
  8
MURO-02
100
AcDbLine
 10
76.68131
 20
50.010819
 30
0.0
 11
76.68131
 21
49.510819
 31
0.0
  0
LINE
  5
A3A
100
AcDbEntity
  8
MURO-02
100
AcDbLine
 10
76.88131
 20
51.510819
 30
0.0
 11
76.88131
 21
49.960819
 31
0.0
  0
LINE
  5
A3B
100
AcDbEntity
  8
MURO-02
100
AcDbLine
 10
76.88131
 20
49.760819
 30
0.0
 11
76.88131
 21
49.510819
 31
0.0
  0
LINE
  5
A3C
100
AcDbEntity
  8
EQUIPAMIENTO
100
AcDbLine
 10
79.08131
 20
49.510819
 30
0.0
 11
79.08131
 21
48.410819
 31
0.0
  0
LINE
  5
A3D
100
AcDbEntity
  8
SOLADO
100
AcDbLine
 10
79.48131
 20
47.510819
 30
0.0
 11
79.48131
 21
51.510819
 31
0.0
  0
LINE
  5
A3E
100
AcDbEntity
  8
SOLADO
100
AcDbLine
 10
79.48131
 20
47.510819
 30
0.0
 11
79.48131
 21
51.510819
 31
0.0
  0
LINE
  5
A3F
100
AcDbEntity
  8
SOLADO
100
AcDbLine
 10
79.48131
 20
47.510819
 30
0.0
 11
79.48131
 21
51.510819
 31
0.0
  0
LINE
  5
A40
100
AcDbEntity
  8
MURO-02
100
AcDbLine
 10
79.48131
 20
49.510819
 30
0.0
 11
79.48131
 21
48.210819
 31
0.0
  0
LINE
  5
A41
100
AcDbEntity
  8
MURO-02
100
AcDbLine
 10
79.28131
 20
49.760819
 30
0.0
 11
79.28131
 21
48.210819
 31
0.0
  0
LINE
  5
A42
100
AcDbEntity
  8
SOLADO
100
AcDbLine
 10
79.48131
 20
47.510819
 30
0.0
 11
79.48131
 21
51.510819
 31
0.0
  0
LINE
  5
A43
100
AcDbEntity
  8
EQUIPAMIENTO
100
AcDbLine
 10
78.13131
 20
48.160819
 30
0.0
 11
79.08131
 21
48.160819
 31
0.0
  0
LINE
  5
A44
100
AcDbEntity
  8
EQUIPAMIENTO
100
AcDbLine
 10
78.13131
 20
48.260819
 30
0.0
 11
79.08131
 21
48.260819
 31
0.0
  0
LINE
  5
A45
100
AcDbEntity
  8
EQUIPAMIENTO
100
AcDbLine
 10
78.13131
 20
48.210819
 30
0.0
 11
79.08131
 21
48.210819
 31
0.0
  0
LINE
  5
A46
100
AcDbEntity
  8
EQUIPAMIENTO
100
AcDbLine
 10
78.13131
 20
48.210819
 30
0.0
 11
79.08131
 21
48.210819
 31
0.0
  0
LINE
  5
A47
100
AcDbEntity
  8
MURO-02
100
AcDbLine
 10
79.08131
 20
48.210819
 30
0.0
 11
79.08131
 21
48.010819
 31
0.0
  0
LINE
  5
A48
100
AcDbEntity
  8
MURO-02
100
AcDbLine
 10
79.38131
 20
48.010819
 30
0.0
 11
79.08131
 21
48.010819
 31
0.0
  0
LINE
  5
A49
100
AcDbEntity
  8
MURO-02
100
AcDbLine
 10
79.28131
 20
48.210819
 30
0.0
 11
79.08131
 21
48.210819
 31
0.0
  0
LINE
  5
A4A
100
AcDbEntity
  8
EQUIPAMIENTO
100
AcDbLine
 10
80.18131
 20
49.110819
 30
0.0
 11
80.18131
 21
47.310819
 31
0.0
  0
LINE
  5
A4B
100
AcDbEntity
  8
MURO-02
100
AcDbLine
 10
79.28131
 20
51.510819
 30
0.0
 11
79.28131
 21
49.960819
 31
0.0
  0
LINE
  5
A4C
100
AcDbEntity
  8
MURO-02
100
AcDbLine
 10
79.48131
 20
49.610819
 30
0.0
 11
79.48131
 21
49.510819
 31
0.0
  0
INSERT
  5
A4D
100
AcDbEntity
  8
ESTRUCTURA
100
AcDbBlockReference
  2
COLUMNA
 10
65.48131
 20
60.010819
 30
0.0
  0
INSERT
  5
A4E
100
AcDbEntity
  8
ESTRUCTURA
100
AcDbBlockReference
  2
COLUMNA
 10
59.88131
 20
60.010819
 30
0.0
  0
INSERT
  5
A4F
100
AcDbEntity
  8
ESTRUCTURA
100
AcDbBlockReference
  2
COLUMNA
 10
59.88131
 20
54.410819
 30
0.0
  0
INSERT
  5
A50
100
AcDbEntity
  8
ESTRUCTURA
100
AcDbBlockReference
  2
COLUMNA
 10
65.48131
 20
54.410819
 30
0.0
  0
INSERT
  5
A51
100
AcDbEntity
  8
ESTRUCTURA
100
AcDbBlockReference
  2
COLUMNA
 10
65.48131
 20
65.610819
 30
0.0
  0
INSERT
  5
A52
100
AcDbEntity
  8
ESTRUCTURA
100
AcDbBlockReference
  2
COLUMNA
 10
76.68131
 20
60.010819
 30
0.0
  0
INSERT
  5
A53
100
AcDbEntity
  8
ESTRUCTURA
100
AcDbBlockReference
  2
COLUMNA
 10
71.08131
 20
60.010819
 30
0.0
  0
LINE
  5
A54
100
AcDbEntity
  8
EQUIPAMIENTO
100
AcDbLine
 10
72.08131
 20
56.010819
 30
0.0
 11
72.08131
 21
55.160819
 31
0.0
  0
LINE
  5
A55
100
AcDbEntity
  8
EQUIPAMIENTO
100
AcDbLine
 10
72.98131
 20
56.010819
 30
0.0
 11
72.98131
 21
55.160819
 31
0.0
  0
LINE
  5
A56
100
AcDbEntity
  8
EQUIPAMIENTO
100
AcDbLine
 10
73.88131
 20
56.010819
 30
0.0
 11
73.88131
 21
55.160819
 31
0.0
  0
LINE
  5
A57
100
AcDbEntity
  8
EQUIPAMIENTO
100
AcDbLine
 10
74.78131
 20
56.010819
 30
0.0
 11
74.78131
 21
55.160819
 31
0.0
  0
LINE
  5
A58
100
AcDbEntity
  8
MURO-02
100
AcDbLine
 10
71.08131
 20
54.310819
 30
0.0
 11
71.08131
 21
56.210819
 31
0.0
  0
LINE
  5
A59
100
AcDbEntity
  8
MURO-02
100
AcDbLine
 10
71.28131
 20
54.310819
 30
0.0
 11
71.28131
 21
56.010819
 31
0.0
  0
LINE
  5
A5A
100
AcDbEntity
  8
CARPINTERIA
100
AcDbLine
 10
71.18131
 20
54.310819
 30
0.0
 11
71.18131
 21
52.110819
 31
0.0
  0
LINE
  5
A5B
100
AcDbEntity
  8
CARPINTERIA
100
AcDbLine
 10
71.23131
 20
54.310819
 30
0.0
 11
71.23131
 21
52.110819
 31
0.0
  0
LINE
  5
A5C
100
AcDbEntity
  8
MURO-01
100
AcDbLine
 10
71.28131
 20
54.310819
 30
0.0
 11
71.28131
 21
52.110819
 31
0.0
  0
LINE
  5
A5D
100
AcDbEntity
  8
MURO-01
100
AcDbLine
 10
71.08131
 20
54.310819
 30
0.0
 11
71.08131
 21
52.110819
 31
0.0
  0
LINE
  5
A5E
100
AcDbEntity
  8
EQUIPAMIENTO
100
AcDbLine
 10
72.08131
 20
54.260819
 30
0.0
 11
72.08131
 21
52.460819
 31
0.0
  0
LINE
  5
A5F
100
AcDbEntity
  8
CARPINTERIA
100
AcDbLine
 10
71.18131
 20
52.160819
 30
0.0
 11
71.23131
 21
52.160819
 31
0.0
  0
LINE
  5
A60
100
AcDbEntity
  8
MURO-02
100
AcDbLine
 10
71.08131
 20
52.110819
 30
0.0
 11
71.28131
 21
52.110819
 31
0.0
  0
LINE
  5
A61
100
AcDbEntity
  8
EQUIPAMIENTO
100
AcDbLine
 10
71.28131
 20
51.710819
 30
0.0
 11
72.08131
 21
51.710819
 31
0.0
  0
LINE
  5
A62
100
AcDbEntity
  8
MURO-02
100
AcDbLine
 10
71.28131
 20
51.910819
 30
0.0
 11
71.28131
 21
51.810819
 31
0.0
  0
LINE
  5
A63
100
AcDbEntity
  8
MURO-02
100
AcDbLine
 10
71.28131
 20
51.910819
 30
0.0
 11
71.28131
 21
52.110819
 31
0.0
  0
LINE
  5
A64
100
AcDbEntity
  8
CARPINTERIA
100
AcDbLine
 10
71.18131
 20
54.260819
 30
0.0
 11
71.23131
 21
54.260819
 31
0.0
  0
LINE
  5
A65
100
AcDbEntity
  8
MURO-02
100
AcDbLine
 10
71.08131
 20
54.310819
 30
0.0
 11
71.28131
 21
54.310819
 31
0.0
  0
LINE
  5
A66
100
AcDbEntity
  8
EQUIPAMIENTO
100
AcDbLine
 10
72.98131
 20
54.260819
 30
0.0
 11
72.98131
 21
52.460819
 31
0.0
  0
LINE
  5
A67
100
AcDbEntity
  8
EQUIPAMIENTO
100
AcDbLine
 10
73.88131
 20
54.260819
 30
0.0
 11
73.88131
 21
52.460819
 31
0.0
  0
LINE
  5
A68
100
AcDbEntity
  8
EQUIPAMIENTO
100
AcDbLine
 10
74.78131
 20
54.260819
 30
0.0
 11
74.78131
 21
52.460819
 31
0.0
  0
LINE
  5
A69
100
AcDbEntity
  8
EQUIPAMIENTO
100
AcDbLine
 10
72.98131
 20
51.710819
 30
0.0
 11
74.78131
 21
51.710819
 31
0.0
  0
LINE
  5
A6A
100
AcDbEntity
  8
EQUIPAMIENTO
100
AcDbLine
 10
75.68131
 20
56.010819
 30
0.0
 11
75.68131
 21
55.160819
 31
0.0
  0
LINE
  5
A6B
100
AcDbEntity
  8
EQUIPAMIENTO
100
AcDbLine
 10
76.58131
 20
56.010819
 30
0.0
 11
76.58131
 21
55.160819
 31
0.0
  0
LINE
  5
A6C
100
AcDbEntity
  8
EQUIPAMIENTO
100
AcDbLine
 10
77.48131
 20
56.010819
 30
0.0
 11
77.48131
 21
55.160819
 31
0.0
  0
LINE
  5
A6D
100
AcDbEntity
  8
EQUIPAMIENTO
100
AcDbLine
 10
78.38131
 20
56.010819
 30
0.0
 11
78.38131
 21
55.160819
 31
0.0
  0
LINE
  5
A6E
100
AcDbEntity
  8
EQUIPAMIENTO
100
AcDbLine
 10
79.28131
 20
56.010819
 30
0.0
 11
79.28131
 21
55.160819
 31
0.0
  0
LINE
  5
A6F
100
AcDbEntity
  8
EQUIPAMIENTO
100
AcDbLine
 10
80.18131
 20
56.010819
 30
0.0
 11
80.18131
 21
55.160819
 31
0.0
  0
LINE
  5
A70
100
AcDbEntity
  8
MURO-02
100
AcDbLine
 10
76.68131
 20
51.710819
 30
0.0
 11
79.48131
 21
51.710819
 31
0.0
  0
LINE
  5
A71
100
AcDbEntity
  8
EQUIPAMIENTO
100
AcDbLine
 10
75.68131
 20
54.260819
 30
0.0
 11
75.68131
 21
52.460819
 31
0.0
  0
LINE
  5
A72
100
AcDbEntity
  8
EQUIPAMIENTO
100
AcDbLine
 10
76.58131
 20
54.260819
 30
0.0
 11
76.58131
 21
52.460819
 31
0.0
  0
LINE
  5
A73
100
AcDbEntity
  8
EQUIPAMIENTO
100
AcDbLine
 10
77.48131
 20
54.260819
 30
0.0
 11
77.48131
 21
52.460819
 31
0.0
  0
LINE
  5
A74
100
AcDbEntity
  8
EQUIPAMIENTO
100
AcDbLine
 10
78.38131
 20
54.260819
 30
0.0
 11
78.38131
 21
52.460819
 31
0.0
  0
LINE
  5
A75
100
AcDbEntity
  8
EQUIPAMIENTO
100
AcDbLine
 10
79.28131
 20
54.260819
 30
0.0
 11
79.28131
 21
52.460819
 31
0.0
  0
LINE
  5
A76
100
AcDbEntity
  8
EQUIPAMIENTO
100
AcDbLine
 10
80.18131
 20
54.260819
 30
0.0
 11
80.18131
 21
52.460819
 31
0.0
  0
INSERT
  5
A77
100
AcDbEntity
  8
ESTRUCTURA
100
AcDbBlockReference
  2
COLUMNA
 10
71.08131
 20
65.610819
 30
0.0
  0
INSERT
  5
A78
100
AcDbEntity
  8
ESTRUCTURA
100
AcDbBlockReference
  2
COLUMNA
 10
76.68131
 20
65.610819
 30
0.0
  0
LINE
  5
A79
100
AcDbEntity
  8
EQUIPAMIENTO
100
AcDbLine
 10
83.78131
 20
51.710819
 30
0.0
 11
83.78131
 21
49.910819
 31
0.0
  0
LINE
  5
A7A
100
AcDbEntity
  8
EQUIPAMIENTO
100
AcDbLine
 10
82.88131
 20
51.710819
 30
0.0
 11
82.88131
 21
49.910819
 31
0.0
  0
LINE
  5
A7B
100
AcDbEntity
  8
EQUIPAMIENTO
100
AcDbLine
 10
81.98131
 20
51.710819
 30
0.0
 11
81.98131
 21
49.910819
 31
0.0
  0
LINE
  5
A7C
100
AcDbEntity
  8
EQUIPAMIENTO
100
AcDbLine
 10
81.08131
 20
51.710819
 30
0.0
 11
81.08131
 21
49.910819
 31
0.0
  0
LINE
  5
A7D
100
AcDbEntity
  8
MURO-02
100
AcDbLine
 10
84.68131
 20
52.110819
 30
0.0
 11
84.68131
 21
49.610819
 31
0.0
  0
LINE
  5
A7E
100
AcDbEntity
  8
MURO-02
100
AcDbLine
 10
84.88131
 20
52.110819
 30
0.0
 11
84.88131
 21
49.610819
 31
0.0
  0
LINE
  5
A7F
100
AcDbEntity
  8
SOLADO
100
AcDbLine
 10
84.88131
 20
49.610819
 30
0.0
 11
84.88131
 21
56.510819
 31
0.0
  0
LINE
  5
A80
100
AcDbEntity
  8
SOLADO
100
AcDbLine
 10
84.88131
 20
49.610819
 30
0.0
 11
84.88131
 21
56.510819
 31
0.0
  0
LINE
  5
A81
100
AcDbEntity
  8
SOLADO
100
AcDbLine
 10
84.88131
 20
49.610819
 30
0.0
 11
84.88131
 21
56.510819
 31
0.0
  0
LINE
  5
A82
100
AcDbEntity
  8
SOLADO
100
AcDbLine
 10
84.88131
 20
49.610819
 30
0.0
 11
84.88131
 21
56.510819
 31
0.0
  0
LINE
  5
A83
100
AcDbEntity
  8
SOLADO
100
AcDbLine
 10
84.88131
 20
49.610819
 30
0.0
 11
84.88131
 21
56.510819
 31
0.0
  0
LINE
  5
A84
100
AcDbEntity
  8
SOLADO
100
AcDbLine
 10
84.88131
 20
49.610819
 30
0.0
 11
84.88131
 21
56.510819
 31
0.0
  0
LINE
  5
A85
100
AcDbEntity
  8
SOLADO
100
AcDbLine
 10
84.88131
 20
49.610819
 30
0.0
 11
84.88131
 21
56.510819
 31
0.0
  0
LINE
  5
A86
100
AcDbEntity
  8
SOLADO
100
AcDbLine
 10
84.88131
 20
49.610819
 30
0.0
 11
84.88131
 21
56.510819
 31
0.0
  0
LINE
  5
A87
100
AcDbEntity
  8
SOLADO
100
AcDbLine
 10
84.88131
 20
42.910819
 30
0.0
 11
84.88131
 21
49.610819
 31
0.0
  0
LINE
  5
A88
100
AcDbEntity
  8
EQUIPAMIENTO
100
AcDbLine
 10
89.38131
 20
44.310819
 30
0.0
 11
89.38131
 21
39.710819
 31
0.0
  0
LINE
  5
A89
100
AcDbEntity
  8
EQUIPAMIENTO
100
AcDbLine
 10
88.18131
 20
42.710819
 30
0.0
 11
88.18131
 21
43.610819
 31
0.0
  0
LINE
  5
A8A
100
AcDbEntity
  8
EQUIPAMIENTO
100
AcDbLine
 10
83.78131
 20
43.810819
 30
0.0
 11
83.78131
 21
42.910819
 31
0.0
  0
LINE
  5
A8B
100
AcDbEntity
  8
EQUIPAMIENTO
100
AcDbLine
 10
82.88131
 20
43.810819
 30
0.0
 11
82.88131
 21
42.910819
 31
0.0
  0
LINE
  5
A8C
100
AcDbEntity
  8
EQUIPAMIENTO
100
AcDbLine
 10
81.98131
 20
43.810819
 30
0.0
 11
81.98131
 21
42.910819
 31
0.0
  0
LINE
  5
A8D
100
AcDbEntity
  8
EQUIPAMIENTO
100
AcDbLine
 10
81.08131
 20
43.810819
 30
0.0
 11
81.08131
 21
42.910819
 31
0.0
  0
LINE
  5
A8E
100
AcDbEntity
  8
MURO-02
100
AcDbLine
 10
89.98131
 20
42.710819
 30
0.0
 11
89.98131
 21
49.610819
 31
0.0
  0
LINE
  5
A8F
100
AcDbEntity
  8
MURO-02
100
AcDbLine
 10
89.78131
 20
42.710819
 30
0.0
 11
89.78131
 21
44.310819
 31
0.0
  0
LINE
  5
A90
100
AcDbEntity
  8
MURO-02
100
AcDbLine
 10
84.68131
 20
49.510819
 30
0.0
 11
84.68131
 21
42.910819
 31
0.0
  0
LINE
  5
A91
100
AcDbEntity
  8
MURO-02
100
AcDbLine
 10
84.88131
 20
49.410819
 30
0.0
 11
84.88131
 21
42.910819
 31
0.0
  0
LINE
  5
A92
100
AcDbEntity
  8
PROYECCION
100
AcDbLine
 10
84.88131
 20
42.791656
 30
0.0
 11
87.52854
 21
42.791656
 31
0.0
  0
LINE
  5
A93
100
AcDbEntity
  8
EQUIPAMIENTO
100
AcDbLine
 10
84.88131
 20
42.710819
 30
0.0
 11
88.18131
 21
42.710819
 31
0.0
  0
INSERT
  5
A94
100
AcDbEntity
  8
ESTRUCTURA
100
AcDbBlockReference
  2
COLUMNA
 10
82.28131
 20
37.610819
 30
0.0
  0
LINE
  5
A95
100
AcDbEntity
  8
MURO-02
100
AcDbLine
 10
84.88131
 20
42.910819
 30
0.0
 11
84.88131
 21
42.710819
 31
0.0
  0
INSERT
  5
A96
100
AcDbEntity
  8
ESTRUCTURA
100
AcDbBlockReference
  2
COLUMNA
 10
87.88131
 20
37.610819
 30
0.0
  0
LINE
  5
A97
100
AcDbEntity
  8
EQUIPAMIENTO
100
AcDbLine
 10
89.38131
 20
39.710819
 30
0.0
 11
89.98131
 21
39.710819
 31
0.0
  0
LINE
  5
A98
100
AcDbEntity
  8
MURO-02
100
AcDbLine
 10
89.98131
 20
42.710819
 30
0.0
 11
89.78131
 21
42.710819
 31
0.0
  0
LINE
  5
A99
100
AcDbEntity
  8
EQUIPAMIENTO
100
AcDbLine
 10
84.88131
 20
49.035819
 30
0.0
 11
88.98131
 21
49.035819
 31
0.0
  0
LINE
  5
A9A
100
AcDbEntity
  8
SOLADO
100
AcDbLine
 10
84.88131
 20
49.610819
 30
0.0
 11
89.98131
 21
49.610819
 31
0.0
  0
LINE
  5
A9B
100
AcDbEntity
  8
SOLADO
100
AcDbLine
 10
84.88131
 20
49.610819
 30
0.0
 11
89.98131
 21
49.610819
 31
0.0
  0
LINE
  5
A9C
100
AcDbEntity
  8
SOLADO
100
AcDbLine
 10
84.88131
 20
49.610819
 30
0.0
 11
89.98131
 21
49.610819
 31
0.0
  0
LINE
  5
A9D
100
AcDbEntity
  8
SOLADO
100
AcDbLine
 10
84.88131
 20
49.610819
 30
0.0
 11
89.98131
 21
49.610819
 31
0.0
  0
LINE
  5
A9E
100
AcDbEntity
  8
SOLADO
100
AcDbLine
 10
84.88131
 20
49.610819
 30
0.0
 11
89.98131
 21
49.610819
 31
0.0
  0
LINE
  5
A9F
100
AcDbEntity
  8
SOLADO
100
AcDbLine
 10
84.88131
 20
49.610819
 30
0.0
 11
89.98131
 21
49.610819
 31
0.0
  0
LINE
  5
AA0
100
AcDbEntity
  8
SOLADO
100
AcDbLine
 10
84.88131
 20
49.610819
 30
0.0
 11
89.98131
 21
49.610819
 31
0.0
  0
LINE
  5
AA1
100
AcDbEntity
  8
SOLADO
100
AcDbLine
 10
84.88131
 20
49.610819
 30
0.0
 11
89.98131
 21
49.610819
 31
0.0
  0
LINE
  5
AA2
100
AcDbEntity
  8
SOLADO
100
AcDbLine
 10
84.88131
 20
49.610819
 30
0.0
 11
89.98131
 21
49.610819
 31
0.0
  0
LINE
  5
AA3
100
AcDbEntity
  8
SOLADO
100
AcDbLine
 10
84.88131
 20
49.610819
 30
0.0
 11
89.98131
 21
49.610819
 31
0.0
  0
LINE
  5
AA4
100
AcDbEntity
  8
SOLADO
100
AcDbLine
 10
84.88131
 20
49.610819
 30
0.0
 11
89.98131
 21
49.610819
 31
0.0
  0
LINE
  5
AA5
100
AcDbEntity
  8
SOLADO
100
AcDbLine
 10
84.88131
 20
49.610819
 30
0.0
 11
89.98131
 21
49.610819
 31
0.0
  0
LINE
  5
AA6
100
AcDbEntity
  8
SOLADO
100
AcDbLine
 10
84.88131
 20
49.610819
 30
0.0
 11
89.98131
 21
49.610819
 31
0.0
  0
LINE
  5
AA7
100
AcDbEntity
  8
SOLADO
100
AcDbLine
 10
84.88131
 20
49.610819
 30
0.0
 11
89.98131
 21
49.610819
 31
0.0
  0
LINE
  5
AA8
100
AcDbEntity
  8
MURO-02
100
AcDbLine
 10
84.88131
 20
49.410819
 30
0.0
 11
89.78131
 21
49.410819
 31
0.0
  0
LINE
  5
AA9
100
AcDbEntity
  8
MURO-02
100
AcDbLine
 10
84.88131
 20
49.610819
 30
0.0
 11
89.98131
 21
49.610819
 31
0.0
  0
LINE
  5
AAA
100
AcDbEntity
  8
SOLADO
100
AcDbLine
 10
84.88131
 20
49.610819
 30
0.0
 11
89.98131
 21
49.610819
 31
0.0
  0
LINE
  5
AAB
100
AcDbEntity
  8
SOLADO
100
AcDbLine
 10
84.88131
 20
49.610819
 30
0.0
 11
89.98131
 21
49.610819
 31
0.0
  0
LINE
  5
AAC
100
AcDbEntity
  8
EQUIPAMIENTO
100
AcDbLine
 10
82.88131
 20
46.510819
 30
0.0
 11
82.88131
 21
44.710819
 31
0.0
  0
LINE
  5
AAD
100
AcDbEntity
  8
EQUIPAMIENTO
100
AcDbLine
 10
81.98131
 20
46.510819
 30
0.0
 11
81.98131
 21
44.710819
 31
0.0
  0
LINE
  5
AAE
100
AcDbEntity
  8
EQUIPAMIENTO
100
AcDbLine
 10
81.08131
 20
46.510819
 30
0.0
 11
81.08131
 21
44.710819
 31
0.0
  0
LINE
  5
AAF
100
AcDbEntity
  8
EQUIPAMIENTO
100
AcDbLine
 10
83.78131
 20
46.510819
 30
0.0
 11
83.78131
 21
44.710819
 31
0.0
  0
LINE
  5
AB0
100
AcDbEntity
  8
EQUIPAMIENTO
100
AcDbLine
 10
81.98131
 20
49.110819
 30
0.0
 11
81.98131
 21
47.310819
 31
0.0
  0
LINE
  5
AB1
100
AcDbEntity
  8
EQUIPAMIENTO
100
AcDbLine
 10
81.08131
 20
49.110819
 30
0.0
 11
81.08131
 21
47.310819
 31
0.0
  0
LINE
  5
AB2
100
AcDbEntity
  8
EQUIPAMIENTO
100
AcDbLine
 10
82.88131
 20
49.110819
 30
0.0
 11
82.88131
 21
47.310819
 31
0.0
  0
LINE
  5
AB3
100
AcDbEntity
  8
EQUIPAMIENTO
100
AcDbLine
 10
83.78131
 20
49.110819
 30
0.0
 11
83.78131
 21
47.310819
 31
0.0
  0
LINE
  5
AB4
100
AcDbEntity
  8
MURO-02
100
AcDbLine
 10
84.68131
 20
49.610819
 30
0.0
 11
84.68131
 21
49.510819
 31
0.0
  0
LINE
  5
AB5
100
AcDbEntity
  8
EQUIPAMIENTO
100
AcDbLine
 10
88.98131
 20
49.035819
 30
0.0
 11
88.98131
 21
44.310819
 31
0.0
  0
LINE
  5
AB6
100
AcDbEntity
  8
MURO-02
100
AcDbLine
 10
89.78131
 20
44.410819
 30
0.0
 11
89.78131
 21
49.410819
 31
0.0
  0
LINE
  5
AB7
100
AcDbEntity
  8
EQUIPAMIENTO
100
AcDbLine
 10
88.18131
 20
44.310819
 30
0.0
 11
89.78131
 21
44.310819
 31
0.0
  0
LINE
  5
AB8
100
AcDbEntity
  8
ESCALERA
100
AcDbLine
 10
88.18131
 20
43.960819
 30
0.0
 11
86.43131
 21
43.610819
 31
0.0
  0
LINE
  5
AB9
100
AcDbEntity
  8
ESCALERA
100
AcDbLine
 10
86.43131
 20
44.310819
 30
0.0
 11
88.18131
 21
43.960819
 31
0.0
  0
LINE
  5
ABA
100
AcDbEntity
  8
ESCALERA
100
AcDbLine
 10
86.43131
 20
43.660819
 30
0.0
 11
88.18131
 21
43.660819
 31
0.0
  0
LINE
  5
ABB
100
AcDbEntity
  8
ESCALERA
100
AcDbLine
 10
86.43131
 20
44.260819
 30
0.0
 11
88.18131
 21
44.260819
 31
0.0
  0
LINE
  5
ABC
100
AcDbEntity
  8
ESCALERA
100
AcDbLine
 10
86.43131
 20
43.610819
 30
0.0
 11
88.18131
 21
43.610819
 31
0.0
  0
LINE
  5
ABD
100
AcDbEntity
  8
ESCALERA
100
AcDbLine
 10
86.43131
 20
44.310819
 30
0.0
 11
88.18131
 21
44.310819
 31
0.0
  0
LINE
  5
ABE
100
AcDbEntity
  8
ESCALERA
100
AcDbLine
 10
86.43131
 20
44.310819
 30
0.0
 11
86.43131
 21
43.610819
 31
0.0
  0
LINE
  5
ABF
100
AcDbEntity
  8
ESCALERA
100
AcDbLine
 10
86.68131
 20
44.310819
 30
0.0
 11
86.68131
 21
43.610819
 31
0.0
  0
LINE
  5
AC0
100
AcDbEntity
  8
ESCALERA
100
AcDbLine
 10
86.93131
 20
44.310819
 30
0.0
 11
86.93131
 21
43.610819
 31
0.0
  0
LINE
  5
AC1
100
AcDbEntity
  8
ESCALERA
100
AcDbLine
 10
87.18131
 20
44.310819
 30
0.0
 11
87.18131
 21
43.610819
 31
0.0
  0
LINE
  5
AC2
100
AcDbEntity
  8
ESCALERA
100
AcDbLine
 10
87.43131
 20
44.310819
 30
0.0
 11
87.43131
 21
43.610819
 31
0.0
  0
LINE
  5
AC3
100
AcDbEntity
  8
ESCALERA
100
AcDbLine
 10
87.68131
 20
44.310819
 30
0.0
 11
87.68131
 21
43.610819
 31
0.0
  0
LINE
  5
AC4
100
AcDbEntity
  8
ESCALERA
100
AcDbLine
 10
87.93131
 20
44.310819
 30
0.0
 11
87.93131
 21
43.610819
 31
0.0
  0
LINE
  5
AC5
100
AcDbEntity
  8
ESCALERA
100
AcDbLine
 10
88.18131
 20
44.310819
 30
0.0
 11
88.18131
 21
43.610819
 31
0.0
  0
INSERT
  5
AC6
100
AcDbEntity
  8
ESTRUCTURA
100
AcDbBlockReference
  2
COLUMNA
 10
87.88131
 20
43.210819
 30
0.0
  0
LINE
  5
AC7
100
AcDbEntity
  8
MURO-02
100
AcDbLine
 10
89.78131
 20
44.310819
 30
0.0
 11
89.78131
 21
44.410819
 31
0.0
  0
INSERT
  5
AC8
100
AcDbEntity
  8
ESTRUCTURA
100
AcDbBlockReference
  2
COLUMNA
 10
87.88131
 20
48.810819
 30
0.0
  0
LINE
  5
AC9
100
AcDbEntity
  8
CARPINTERIA
100
AcDbLine
 10
94.53131
 20
38.07177
 30
0.0
 11
93.08131
 21
38.391907
 31
0.0
  0
LINE
  5
ACA
100
AcDbEntity
  8
CARPINTERIA
100
AcDbLine
 10
94.53131
 20
38.122974
 30
0.0
 11
93.03131
 21
38.454151
 31
0.0
  0
INSERT
  5
ACB
100
AcDbEntity
  8
ESTRUCTURA
100
AcDbBlockReference
  2
COLUMNA
 10
93.48131
 20
37.610819
 30
0.0
  0
LINE
  5
ACC
100
AcDbEntity
  8
CARPINTERIA
100
AcDbLine
 10
94.53131
 20
38.07177
 30
0.0
 11
94.58131
 21
38.060731
 31
0.0
  0
LINE
  5
ACD
100
AcDbEntity
  8
CARPINTERIA
100
AcDbLine
 10
95.33131
 20
37.946347
 30
0.0
 11
94.58131
 21
38.111935
 31
0.0
  0
LINE
  5
ACE
100
AcDbEntity
  8
CARPINTERIA
100
AcDbLine
 10
95.28131
 20
37.906182
 30
0.0
 11
94.58131
 21
38.060731
 31
0.0
  0
INSERT
  5
ACF
100
AcDbEntity
  8
ESTRUCTURA
100
AcDbBlockReference
  2
COLUMNA
 10
99.08131
 20
37.610819
 30
0.0
  0
INSERT
  5
AD0
100
AcDbEntity
  8
ESTRUCTURA
100
AcDbBlockReference
  2
COLUMNA
 10
93.48131
 20
43.210819
 30
0.0
  0
INSERT
  5
AD1
100
AcDbEntity
  8
ESTRUCTURA
100
AcDbBlockReference
  2
COLUMNA
 10
93.48131
 20
48.810819
 30
0.0
  0
INSERT
  5
AD2
100
AcDbEntity
  8
ESTRUCTURA
100
AcDbBlockReference
  2
COLUMNA
 10
99.08131
 20
43.210819
 30
0.0
  0
INSERT
  5
AD3
100
AcDbEntity
  8
ESTRUCTURA
100
AcDbBlockReference
  2
COLUMNA
 10
99.08131
 20
48.810819
 30
0.0
  0
INSERT
  5
AD4
100
AcDbEntity
  8
ESTRUCTURA
100
AcDbBlockReference
  2
COLUMNA
 10
87.88131
 20
60.010819
 30
0.0
  0
INSERT
  5
AD5
100
AcDbEntity
  8
ESTRUCTURA
100
AcDbBlockReference
  2
COLUMNA
 10
82.28131
 20
60.010819
 30
0.0
  0
LINE
  5
AD6
100
AcDbEntity
  8
EQUIPAMIENTO
100
AcDbLine
 10
81.08131
 20
56.010819
 30
0.0
 11
81.08131
 21
55.160819
 31
0.0
  0
LINE
  5
AD7
100
AcDbEntity
  8
EQUIPAMIENTO
100
AcDbLine
 10
81.98131
 20
56.010819
 30
0.0
 11
81.98131
 21
55.160819
 31
0.0
  0
LINE
  5
AD8
100
AcDbEntity
  8
EQUIPAMIENTO
100
AcDbLine
 10
82.88131
 20
56.010819
 30
0.0
 11
82.88131
 21
55.160819
 31
0.0
  0
LINE
  5
AD9
100
AcDbEntity
  8
EQUIPAMIENTO
100
AcDbLine
 10
83.78131
 20
56.010819
 30
0.0
 11
83.78131
 21
55.160819
 31
0.0
  0
LINE
  5
ADA
100
AcDbEntity
  8
MURO-02
100
AcDbLine
 10
84.88131
 20
56.210819
 30
0.0
 11
84.88131
 21
54.310819
 31
0.0
  0
LINE
  5
ADB
100
AcDbEntity
  8
MURO-02
100
AcDbLine
 10
84.68131
 20
56.010819
 30
0.0
 11
84.68131
 21
54.310819
 31
0.0
  0
LINE
  5
ADC
100
AcDbEntity
  8
EQUIPAMIENTO
100
AcDbLine
 10
82.88131
 20
54.260819
 30
0.0
 11
82.88131
 21
52.460819
 31
0.0
  0
LINE
  5
ADD
100
AcDbEntity
  8
EQUIPAMIENTO
100
AcDbLine
 10
81.98131
 20
54.260819
 30
0.0
 11
81.98131
 21
52.460819
 31
0.0
  0
LINE
  5
ADE
100
AcDbEntity
  8
EQUIPAMIENTO
100
AcDbLine
 10
81.08131
 20
54.260819
 30
0.0
 11
81.08131
 21
52.460819
 31
0.0
  0
LINE
  5
ADF
100
AcDbEntity
  8
CARPINTERIA
100
AcDbLine
 10
84.78131
 20
54.310819
 30
0.0
 11
84.78131
 21
52.110819
 31
0.0
  0
LINE
  5
AE0
100
AcDbEntity
  8
CARPINTERIA
100
AcDbLine
 10
84.73131
 20
54.310819
 30
0.0
 11
84.73131
 21
52.110819
 31
0.0
  0
LINE
  5
AE1
100
AcDbEntity
  8
MURO-01
100
AcDbLine
 10
84.88131
 20
54.310819
 30
0.0
 11
84.88131
 21
52.110819
 31
0.0
  0
LINE
  5
AE2
100
AcDbEntity
  8
MURO-01
100
AcDbLine
 10
84.68131
 20
54.310819
 30
0.0
 11
84.68131
 21
52.110819
 31
0.0
  0
LINE
  5
AE3
100
AcDbEntity
  8
EQUIPAMIENTO
100
AcDbLine
 10
83.78131
 20
54.260819
 30
0.0
 11
83.78131
 21
52.460819
 31
0.0
  0
LINE
  5
AE4
100
AcDbEntity
  8
MURO-02
100
AcDbLine
 10
84.68131
 20
52.110819
 30
0.0
 11
84.88131
 21
52.110819
 31
0.0
  0
LINE
  5
AE5
100
AcDbEntity
  8
CARPINTERIA
100
AcDbLine
 10
84.73131
 20
52.160819
 30
0.0
 11
84.78131
 21
52.160819
 31
0.0
  0
LINE
  5
AE6
100
AcDbEntity
  8
MURO-02
100
AcDbLine
 10
84.68131
 20
54.310819
 30
0.0
 11
84.88131
 21
54.310819
 31
0.0
  0
LINE
  5
AE7
100
AcDbEntity
  8
CARPINTERIA
100
AcDbLine
 10
84.73131
 20
54.260819
 30
0.0
 11
84.78131
 21
54.260819
 31
0.0
  0
INSERT
  5
AE8
100
AcDbEntity
  8
ESTRUCTURA
100
AcDbBlockReference
  2
COLUMNA
 10
82.28131
 20
65.610819
 30
0.0
  0
INSERT
  5
AE9
100
AcDbEntity
  8
ESTRUCTURA
100
AcDbBlockReference
  2
COLUMNA
 10
87.88131
 20
65.610819
 30
0.0
  0
INSERT
  5
AEA
100
AcDbEntity
  8
ESTRUCTURA
100
AcDbBlockReference
  2
COLUMNA
 10
93.48131
 20
60.010819
 30
0.0
  0
INSERT
  5
AEB
100
AcDbEntity
  8
ESTRUCTURA
100
AcDbBlockReference
  2
COLUMNA
 10
99.08131
 20
60.010819
 30
0.0
  0
INSERT
  5
AEC
100
AcDbEntity
  8
ESTRUCTURA
100
AcDbBlockReference
  2
COLUMNA
 10
93.48131
 20
54.410819
 30
0.0
  0
INSERT
  5
AED
100
AcDbEntity
  8
ESTRUCTURA
100
AcDbBlockReference
  2
COLUMNA
 10
99.08131
 20
54.410819
 30
0.0
  0
INSERT
  5
AEE
100
AcDbEntity
  8
ESTRUCTURA
100
AcDbBlockReference
  2
COLUMNA
 10
93.48131
 20
65.610819
 30
0.0
  0
INSERT
  5
AEF
100
AcDbEntity
  8
ESTRUCTURA
100
AcDbBlockReference
  2
COLUMNA
 10
99.08131
 20
65.610819
 30
0.0
  0
INSERT
  5
AF0
100
AcDbEntity
  8
ESTRUCTURA
100
AcDbBlockReference
  2
COLUMNA
 10
76.68131
 20
71.210819
 30
0.0
  0
INSERT
  5
AF9
100
AcDbEntity
  8
ESTRUCTURA
100
AcDbBlockReference
  2
COLUMNA
 10
82.28131
 20
71.210819
 30
0.0
  0
INSERT
  5
AFA
100
AcDbEntity
  8
ESTRUCTURA
100
AcDbBlockReference
  2
COLUMNA
 10
87.88131
 20
71.210819
 30
0.0
  0
INSERT
  5
AFB
100
AcDbEntity
  8
ESTRUCTURA
100
AcDbBlockReference
  2
COLUMNA
 10
87.88131
 20
76.810819
 30
0.0
  0
INSERT
  5
AFC
100
AcDbEntity
  8
ESTRUCTURA
100
AcDbBlockReference
  2
COLUMNA
 10
87.88131
 20
76.810819
 30
0.0
  0
INSERT
  5
AFD
100
AcDbEntity
  8
ESTRUCTURA
100
AcDbBlockReference
  2
COLUMNA
 10
93.48131
 20
71.210819
 30
0.0
  0
INSERT
  5
AFE
100
AcDbEntity
  8
ESTRUCTURA
100
AcDbBlockReference
  2
COLUMNA
 10
93.48131
 20
76.810819
 30
0.0
  0
INSERT
  5
AFF
100
AcDbEntity
  8
ESTRUCTURA
100
AcDbBlockReference
  2
COLUMNA
 10
93.48131
 20
76.810819
 30
0.0
  0
INSERT
  5
B00
100
AcDbEntity
  8
ESTRUCTURA
100
AcDbBlockReference
  2
COLUMNA
 10
99.08131
 20
71.210819
 30
0.0
  0
INSERT
  5
B01
100
AcDbEntity
  8
ESTRUCTURA
100
AcDbBlockReference
  2
COLUMNA
 10
99.08131
 20
76.810819
 30
0.0
  0
INSERT
  5
B02
100
AcDbEntity
  8
ESTRUCTURA
100
AcDbBlockReference
  2
COLUMNA
 10
99.08131
 20
76.810819
 30
0.0
  0
INSERT
  5
B03
100
AcDbEntity
  8
ESTRUCTURA
100
AcDbBlockReference
  2
COLUMNA
 10
99.08131
 20
82.410819
 30
0.0
  0
LINE
  5
B04
100
AcDbEntity
  8
SOLADO
100
AcDbLine
 10
109.171377
 20
80.338517
 30
0.0
 11
105.492616
 21
35.702888
 31
0.0
  0
LINE
  5
B10
100
AcDbEntity
  8
GRILLA
100
AcDbLine
 10
0.52131
 20
33.130819
 30
0.0
 11
99.08131
 21
82.410819
 31
0.0
  0
LINE
  5
B11
100
AcDbEntity
  8
GRILLA
100
AcDbLine
 10
87.88131
 20
76.810819
 30
0.0
 11
109.08131
 21
76.810819
 31
0.0
  0
LINE
  5
B12
100
AcDbEntity
  8
GRILLA
100
AcDbLine
 10
76.68131
 20
71.210819
 30
0.0
 11
108.619772
 21
71.210819
 31
0.0
  0
LINE
  5
B13
100
AcDbEntity
  8
GRILLA
100
AcDbLine
 10
65.48131
 20
65.610819
 30
0.0
 11
108.158234
 21
65.610819
 31
0.0
  0
LINE
  5
B14
100
AcDbEntity
  8
GRILLA
100
AcDbLine
 10
54.28131
 20
60.010819
 30
0.0
 11
107.696695
 21
60.010819
 31
0.0
  0
LINE
  5
B15
100
AcDbEntity
  8
GRILLA
100
AcDbLine
 10
43.08131
 20
54.410819
 30
0.0
 11
107.235157
 21
54.410819
 31
0.0
  0
LINE
  5
B16
100
AcDbEntity
  8
GRILLA
100
AcDbLine
 10
31.88131
 20
48.810819
 30
0.0
 11
106.773618
 21
48.810819
 31
0.0
  0
LINE
  5
B17
100
AcDbEntity
  8
GRILLA
100
AcDbLine
 10
20.68131
 20
43.210819
 30
0.0
 11
106.31208
 21
43.210819
 31
0.0
  0
LINE
  5
B18
100
AcDbEntity
  8
GRILLA
100
AcDbLine
 10
9.48131
 20
37.610819
 30
0.0
 11
105.850541
 21
37.610819
 31
0.0
  0
LINE
  5
B19
100
AcDbEntity
  8
GRILLA
100
AcDbLine
 10
3.88131
 20
32.010819
 30
0.0
 11
105.389003
 21
32.010819
 31
0.0
  0
LINE
  5
B1A
100
AcDbEntity
  8
GRILLA
100
AcDbLine
 10
20.68131
 20
26.410819
 30
0.0
 11
104.927464
 21
26.410819
 31
0.0
  0
LINE
  5
B1B
100
AcDbEntity
  8
GRILLA
100
AcDbLine
 10
37.48131
 20
20.810819
 30
0.0
 11
104.465926
 21
20.810819
 31
0.0
  0
LINE
  5
B1C
100
AcDbEntity
  8
GRILLA
100
AcDbLine
 10
54.28131
 20
15.210819
 30
0.0
 11
104.004387
 21
15.210819
 31
0.0
  0
LINE
  5
B1D
100
AcDbEntity
  8
GRILLA
100
AcDbLine
 10
71.08131
 20
9.610819
 30
0.0
 11
103.542849
 21
9.610819
 31
0.0
  0
LINE
  5
B1E
100
AcDbEntity
  8
GRILLA
100
AcDbLine
 10
87.88131
 20
4.010819
 30
0.0
 11
103.08131
 21
4.010819
 31
0.0
  0
LINE
  5
B1F
100
AcDbEntity
  8
GRILLA
100
AcDbLine
 10
102.817574
 20
0.810819
 30
0.0
 11
6.18131
 21
31.357806
 31
0.0
  0
LINE
  5
B20
100
AcDbEntity
  8
GRILLA
100
AcDbLine
 10
0.52131
 20
33.130819
 30
0.0
 11
93.48131
 21
2.144152
 31
0.0
  0
LINE
  5
B21
100
AcDbEntity
  8
GRILLA
100
AcDbLine
 10
93.48131
 20
2.144152
 30
0.0
 11
99.08131
 21
0.277485
 31
0.0
  0
LINE
  5
B22
100
AcDbEntity
  8
GRILLA
100
AcDbLine
 10
102.817574
 20
0.810819
 30
0.0
 11
109.378014
 21
80.410819
 31
0.0
  0
LINE
  5
B23
100
AcDbEntity
  8
GRILLA
100
AcDbLine
 10
109.378014
 20
80.410819
 30
0.0
 11
93.48131
 21
74.85291
 31
0.0
  0
LINE
  5
B24
100
AcDbEntity
  8
GRILLA
100
AcDbLine
 10
93.48131
 20
79.610819
 30
0.0
 11
93.48131
 21
2.144152
 31
0.0
  0
LINE
  5
B26
100
AcDbEntity
  8
GRILLA
100
AcDbLine
 10
99.08131
 20
82.410819
 30
0.0
 11
99.08131
 21
0.277485
 31
0.0
  0
LINE
  5
B27
100
AcDbEntity
  8
GRILLA
100
AcDbLine
 10
87.88131
 20
76.810819
 30
0.0
 11
87.88131
 21
4.010819
 31
0.0
  0
LINE
  5
B28
100
AcDbEntity
  8
GRILLA
100
AcDbLine
 10
82.28131
 20
74.010819
 30
0.0
 11
82.28131
 21
5.877485
 31
0.0
  0
LINE
  5
B29
100
AcDbEntity
  8
GRILLA
100
AcDbLine
 10
76.68131
 20
71.210819
 30
0.0
 11
76.68131
 21
7.744152
 31
0.0
  0
LINE
  5
B2A
100
AcDbEntity
  8
GRILLA
100
AcDbLine
 10
71.08131
 20
68.410819
 30
0.0
 11
71.08131
 21
9.610819
 31
0.0
  0
LINE
  5
B2B
100
AcDbEntity
  8
GRILLA
100
AcDbLine
 10
59.88131
 20
62.810819
 30
0.0
 11
59.88131
 21
13.344152
 31
0.0
  0
LINE
  5
B2C
100
AcDbEntity
  8
GRILLA
100
AcDbLine
 10
48.68131
 20
57.210819
 30
0.0
 11
48.68131
 21
17.077485
 31
0.0
  0
LINE
  5
B2D
100
AcDbEntity
  8
GRILLA
100
AcDbLine
 10
43.08131
 20
54.410819
 30
0.0
 11
43.08131
 21
18.944152
 31
0.0
  0
LINE
  5
B2E
100
AcDbEntity
  8
GRILLA
100
AcDbLine
 10
37.48131
 20
51.610819
 30
0.0
 11
37.48131
 21
20.810819
 31
0.0
  0
LINE
  5
B2F
100
AcDbEntity
  8
GRILLA
100
AcDbLine
 10
31.88131
 20
48.810819
 30
0.0
 11
31.88131
 21
22.677485
 31
0.0
  0
LINE
  5
B30
100
AcDbEntity
  8
GRILLA
100
AcDbLine
 10
26.28131
 20
46.010819
 30
0.0
 11
26.28131
 21
24.544152
 31
0.0
  0
LINE
  5
B31
100
AcDbEntity
  8
GRILLA
100
AcDbLine
 10
20.68131
 20
43.210819
 30
0.0
 11
20.68131
 21
26.410819
 31
0.0
  0
LINE
  5
B32
100
AcDbEntity
  8
GRILLA
100
AcDbLine
 10
15.08131
 20
40.410819
 30
0.0
 11
15.08131
 21
28.277485
 31
0.0
  0
LINE
  5
B33
100
AcDbEntity
  8
GRILLA
100
AcDbLine
 10
9.48131
 20
37.610819
 30
0.0
 11
9.48131
 21
30.144152
 31
0.0
  0
LINE
  5
B34
100
AcDbEntity
  8
GRILLA
100
AcDbLine
 10
3.88131
 20
34.810819
 30
0.0
 11
3.88131
 21
32.010819
 31
0.0
  0
LINE
  5
B36
100
AcDbEntity
  8
GRILLA
100
AcDbLine
 10
54.28131
 20
60.010819
 30
0.0
 11
54.28131
 21
15.210819
 31
0.0
  0
LINE
  5
B37
100
AcDbEntity
  8
GRILLA
100
AcDbLine
 10
65.48131
 20
65.610819
 30
0.0
 11
65.48131
 21
11.477485
 31
0.0
  0
TEXT
  5
B4A
100
AcDbEntity
  8
TEXTO
  6
DASHED2
 48
0.6
100
AcDbText
 10
51.357551
 20
-3.208451
 30
0.0
 40
2.5
  1
PLANTA BAJA
  7
COMPLEX
 72
     2
 11
77.667075
 21
-3.208451
 31
0.0
100
AcDbText
  0
ENDSEC
  0
SECTION
  2
OBJECTS
  0
DICTIONARY
  5
C
100
AcDbDictionary
  3
ACAD_GROUP
350
D
  3
ACAD_MLINESTYLE
350
1B
  0
DICTIONARY
  5
D
102
{ACAD_REACTORS
330
C
102
}
100
AcDbDictionary
  0
DICTIONARY
  5
1B
102
{ACAD_REACTORS
330
C
102
}
100
AcDbDictionary
  3
STANDARD
350
1C
  0
MLINESTYLE
  5
1C
102
{ACAD_REACTORS
330
1B
102
}
100
AcDbMlineStyle
  2
STANDARD
 70
     0
  3

 62
   256
 51
90.0
 52
90.0
 71
     2
 49
0.5
 62
   256
  6
BYLAYER
 49
-0.5
 62
   256
  6
BYLAYER
  0
ENDSEC
  0
EOF
